  0
SECTION
  2
HEADER
  9
$ACADVER
  1
AC1015
  9
$ACADMAINTVER
 70
    20
  9
$DWGCODEPAGE
  3
ANSI_1252
  9
$INSBASE
 10
0.0
 20
0.0
 30
0.0
  9
$EXTMIN
 10
935.5846561129121
 20
1383.278057123056
 30
0.0
  9
$EXTMAX
 10
938.8198291800186
 20
1383.814071955559
 30
0.0
  9
$LIMMIN
 10
0.0
 20
0.0
  9
$LIMMAX
 10
420.0
 20
297.0
  9
$ORTHOMODE
 70
     1
  9
$REGENMODE
 70
     1
  9
$FILLMODE
 70
     1
  9
$QTEXTMODE
 70
     0
  9
$MIRRTEXT
 70
     0
  9
$LTSCALE
 40
1.0
  9
$ATTMODE
 70
     1
  9
$TEXTSIZE
 40
2.5
  9
$TRACEWID
 40
1.0
  9
$TEXTSTYLE
  7
Standard
  9
$CLAYER
  8
0
  9
$CELTYPE
  6
ByLayer
  9
$CECOLOR
 62
   256
  9
$CELTSCALE
 40
1.0
  9
$DISPSILH
 70
     0
  9
$DIMSCALE
 40
1.0
  9
$DIMASZ
 40
2.5
  9
$DIMEXO
 40
0.625
  9
$DIMDLI
 40
3.75
  9
$DIMRND
 40
0.0
  9
$DIMDLE
 40
0.0
  9
$DIMEXE
 40
1.25
  9
$DIMTP
 40
0.0
  9
$DIMTM
 40
0.0
  9
$DIMTXT
 40
2.5
  9
$DIMCEN
 40
2.5
  9
$DIMTSZ
 40
0.0
  9
$DIMTOL
 70
     0
  9
$DIMLIM
 70
     0
  9
$DIMTIH
 70
     0
  9
$DIMTOH
 70
     0
  9
$DIMSE1
 70
     0
  9
$DIMSE2
 70
     0
  9
$DIMTAD
 70
     1
  9
$DIMZIN
 70
     8
  9
$DIMBLK
  1

  9
$DIMASO
 70
     1
  9
$DIMSHO
 70
     1
  9
$DIMPOST
  1

  9
$DIMAPOST
  1

  9
$DIMALT
 70
     0
  9
$DIMALTD
 70
     3
  9
$DIMALTF
 40
0.03937007874016
  9
$DIMLFAC
 40
1.0
  9
$DIMTOFL
 70
     1
  9
$DIMTVP
 40
0.0
  9
$DIMTIX
 70
     0
  9
$DIMSOXD
 70
     0
  9
$DIMSAH
 70
     0
  9
$DIMBLK1
  1

  9
$DIMBLK2
  1

  9
$DIMSTYLE
  2
ISO-25
  9
$DIMCLRD
 70
     0
  9
$DIMCLRE
 70
     0
  9
$DIMCLRT
 70
     0
  9
$DIMTFAC
 40
1.0
  9
$DIMGAP
 40
0.625
  9
$DIMJUST
 70
     0
  9
$DIMSD1
 70
     0
  9
$DIMSD2
 70
     0
  9
$DIMTOLJ
 70
     0
  9
$DIMTZIN
 70
     8
  9
$DIMALTZ
 70
     0
  9
$DIMALTTZ
 70
     0
  9
$DIMUPT
 70
     0
  9
$DIMDEC
 70
     2
  9
$DIMTDEC
 70
     2
  9
$DIMALTU
 70
     2
  9
$DIMALTTD
 70
     3
  9
$DIMTXSTY
  7
Standard
  9
$DIMAUNIT
 70
     0
  9
$DIMADEC
 70
     0
  9
$DIMALTRND
 40
0.0
  9
$DIMAZIN
 70
     0
  9
$DIMDSEP
 70
    44
  9
$DIMATFIT
 70
     3
  9
$DIMFRAC
 70
     0
  9
$DIMLDRBLK
  1

  9
$DIMLUNIT
 70
     2
  9
$DIMLWD
 70
    -2
  9
$DIMLWE
 70
    -2
  9
$DIMTMOVE
 70
     0
  9
$LUNITS
 70
     2
  9
$LUPREC
 70
     4
  9
$SKETCHINC
 40
1.0
  9
$FILLETRAD
 40
0.0
  9
$AUNITS
 70
     0
  9
$AUPREC
 70
     0
  9
$MENU
  1
.
  9
$ELEVATION
 40
0.0
  9
$PELEVATION
 40
0.0
  9
$THICKNESS
 40
0.0
  9
$LIMCHECK
 70
     0
  9
$CHAMFERA
 40
0.0
  9
$CHAMFERB
 40
0.0
  9
$CHAMFERC
 40
0.0
  9
$CHAMFERD
 40
0.0
  9
$SKPOLY
 70
     0
  9
$TDCREATE
 40
2453797.492167604
  9
$TDUCREATE
 40
2453797.450500938
  9
$TDUPDATE
 40
2453923.417640509
  9
$TDUUPDATE
 40
2453923.375973843
  9
$TDINDWG
 40
0.0029877315
  9
$TDUSRTIMER
 40
0.0029877315
  9
$USRTIMER
 70
     1
  9
$ANGBASE
 50
0.0
  9
$ANGDIR
 70
     0
  9
$PDMODE
 70
     0
  9
$PDSIZE
 40
0.0
  9
$PLINEWID
 40
0.0
  9
$SPLFRAME
 70
     0
  9
$SPLINETYPE
 70
     6
  9
$SPLINESEGS
 70
     8
  9
$HANDSEED
  5
3FC
  9
$SURFTAB1
 70
     6
  9
$SURFTAB2
 70
     6
  9
$SURFTYPE
 70
     6
  9
$SURFU
 70
     6
  9
$SURFV
 70
     6
  9
$UCSBASE
  2

  9
$UCSNAME
  2

  9
$UCSORG
 10
0.0
 20
0.0
 30
0.0
  9
$UCSXDIR
 10
1.0
 20
0.0
 30
0.0
  9
$UCSYDIR
 10
0.0
 20
1.0
 30
0.0
  9
$UCSORTHOREF
  2

  9
$UCSORTHOVIEW
 70
     0
  9
$UCSORGTOP
 10
0.0
 20
0.0
 30
0.0
  9
$UCSORGBOTTOM
 10
0.0
 20
0.0
 30
0.0
  9
$UCSORGLEFT
 10
0.0
 20
0.0
 30
0.0
  9
$UCSORGRIGHT
 10
0.0
 20
0.0
 30
0.0
  9
$UCSORGFRONT
 10
0.0
 20
0.0
 30
0.0
  9
$UCSORGBACK
 10
0.0
 20
0.0
 30
0.0
  9
$PUCSBASE
  2

  9
$PUCSNAME
  2

  9
$PUCSORG
 10
0.0
 20
0.0
 30
0.0
  9
$PUCSXDIR
 10
1.0
 20
0.0
 30
0.0
  9
$PUCSYDIR
 10
0.0
 20
1.0
 30
0.0
  9
$PUCSORTHOREF
  2

  9
$PUCSORTHOVIEW
 70
     0
  9
$PUCSORGTOP
 10
0.0
 20
0.0
 30
0.0
  9
$PUCSORGBOTTOM
 10
0.0
 20
0.0
 30
0.0
  9
$PUCSORGLEFT
 10
0.0
 20
0.0
 30
0.0
  9
$PUCSORGRIGHT
 10
0.0
 20
0.0
 30
0.0
  9
$PUCSORGFRONT
 10
0.0
 20
0.0
 30
0.0
  9
$PUCSORGBACK
 10
0.0
 20
0.0
 30
0.0
  9
$USERI1
 70
     0
  9
$USERI2
 70
     0
  9
$USERI3
 70
     0
  9
$USERI4
 70
     0
  9
$USERI5
 70
     0
  9
$USERR1
 40
0.0
  9
$USERR2
 40
0.0
  9
$USERR3
 40
0.0
  9
$USERR4
 40
0.0
  9
$USERR5
 40
0.0
  9
$WORLDVIEW
 70
     1
  9
$SHADEDGE
 70
     3
  9
$SHADEDIF
 70
    70
  9
$TILEMODE
 70
     1
  9
$MAXACTVP
 70
    64
  9
$PINSBASE
 10
0.0
 20
0.0
 30
0.0
  9
$PLIMCHECK
 70
     0
  9
$PEXTMIN
 10
1.000000000000000E+20
 20
1.000000000000000E+20
 30
1.000000000000000E+20
  9
$PEXTMAX
 10
-1.000000000000000E+20
 20
-1.000000000000000E+20
 30
-1.000000000000000E+20
  9
$PLIMMIN
 10
0.0
 20
0.0
  9
$PLIMMAX
 10
420.0
 20
297.0
  9
$UNITMODE
 70
     0
  9
$VISRETAIN
 70
     1
  9
$PLINEGEN
 70
     0
  9
$PSLTSCALE
 70
     1
  9
$TREEDEPTH
 70
  3020
  9
$CMLSTYLE
  2
Standard
  9
$CMLJUST
 70
     0
  9
$CMLSCALE
 40
20.0
  9
$PROXYGRAPHICS
 70
     1
  9
$MEASUREMENT
 70
     1
  9
$CELWEIGHT
370
    -1
  9
$ENDCAPS
280
     0
  9
$JOINSTYLE
280
     0
  9
$LWDISPLAY
290
     0
  9
$INSUNITS
 70
     4
  9
$HYPERLINKBASE
  1

  9
$STYLESHEET
  1

  9
$XEDIT
290
     1
  9
$CEPSNTYPE
380
     0
  9
$PSTYLEMODE
290
     1
  9
$FINGERPRINTGUID
  2
{B1E6DE84-F2F9-45AF-950F-B945A0FA8AAC}
  9
$VERSIONGUID
  2
{AE757C9B-6C8E-430C-8519-14E72EDDE4AE}
  9
$EXTNAMES
290
     1
  9
$PSVPSCALE
 40
0.0
  9
$OLESTARTUP
290
     0
  0
ENDSEC
  0
SECTION
  2
CLASSES
  0
CLASS
  1
ACDBDICTIONARYWDFLT
  2
AcDbDictionaryWithDefault
  3
ObjectDBX Classes
 90
        0
280
     0
281
     0
  0
CLASS
  1
TABLESTYLE
  2
AcDbTableStyle
  3
ObjectDBX Classes
 90
     2047
280
     0
281
     0
  0
CLASS
  1
DICTIONARYVAR
  2
AcDbDictionaryVar
  3
ObjectDBX Classes
 90
        0
280
     0
281
     0
  0
CLASS
  1
ACDBPLACEHOLDER
  2
AcDbPlaceHolder
  3
ObjectDBX Classes
 90
        0
280
     0
281
     0
  0
CLASS
  1
LAYOUT
  2
AcDbLayout
  3
ObjectDBX Classes
 90
        0
280
     0
281
     0
  0
ENDSEC
  0
SECTION
  2
TABLES
  0
TABLE
  2
VPORT
  5
8
330
0
100
AcDbSymbolTable
 70
     2
  0
VPORT
  5
3F4
330
8
100
AcDbSymbolTableRecord
100
AcDbViewportTableRecord
  2
*Active
 70
     0
 10
0.0
 20
0.0
 11
1.0
 21
1.0
 12
937.2104433074666
 22
1383.546064539307
 13
0.0
 23
0.0
 14
10.0
 24
10.0
 15
10.0
 25
10.0
 16
0.0
 26
0.0
 36
1.0
 17
0.0
 27
0.0
 37
0.0
 40
2.047670751686952
 41
1.593939393939393
 42
50.0
 43
0.0
 44
0.0
 50
0.0
 51
0.0
 71
     0
 72
  1000
 73
     1
 74
     3
 75
     0
 76
     0
 77
     0
 78
     0
281
     0
 65
     1
110
0.0
120
0.0
130
0.0
111
1.0
121
0.0
131
0.0
112
0.0
122
1.0
132
0.0
 79
     0
146
0.0
  0
ENDTAB
  0
TABLE
  2
LTYPE
  5
5
330
0
100
AcDbSymbolTable
 70
     3
  0
LTYPE
  5
14
330
5
100
AcDbSymbolTableRecord
100
AcDbLinetypeTableRecord
  2
ByBlock
 70
     0
  3

 72
    65
 73
     0
 40
0.0
  0
LTYPE
  5
15
330
5
100
AcDbSymbolTableRecord
100
AcDbLinetypeTableRecord
  2
ByLayer
 70
     0
  3

 72
    65
 73
     0
 40
0.0
  0
LTYPE
  5
16
330
5
100
AcDbSymbolTableRecord
100
AcDbLinetypeTableRecord
  2
Continuous
 70
     0
  3
Solid line
 72
    65
 73
     0
 40
0.0
  0
LTYPE
  5
2F
330
5
100
AcDbSymbolTableRecord
100
AcDbLinetypeTableRecord
  2
DASHDOT
 70
     0
  3
Dash dot __ . __ . __ . __ . __ . __ . __ . __
 72
    65
 73
     4
 40
25.4
 49
12.7
 74
     0
 49
-6.349999999999999
 74
     0
 49
0.0
 74
     0
 49
-6.349999999999999
 74
     0
  0
LTYPE
  5
30
330
5
100
AcDbSymbolTableRecord
100
AcDbLinetypeTableRecord
  2
HIDDEN
 70
     0
  3
Hidden __ __ __ __ __ __ __ __ __ __ __ __ __ _
 72
    65
 73
     2
 40
9.524999999999998
 49
6.349999999999999
 74
     0
 49
-3.174999999999999
 74
     0
  0
ENDTAB
  0
TABLE
  2
LAYER
  5
2
330
0
100
AcDbSymbolTable
 70
    10
  0
LAYER
  5
10
330
2
100
AcDbSymbolTableRecord
100
AcDbLayerTableRecord
  2
0
 70
     0
 62
     7
  6
Continuous
370
    -3
390
F
  0
LAYER
  5
31
330
2
100
AcDbSymbolTableRecord
100
AcDbLayerTableRecord
  2
2
 70
     0
 62
     2
  6
Continuous
370
    -3
390
F
  0
LAYER
  5
32
330
2
100
AcDbSymbolTableRecord
100
AcDbLayerTableRecord
  2
4
 70
     0
 62
     4
  6
Continuous
370
    -3
390
F
  0
LAYER
  5
33
330
2
100
AcDbSymbolTableRecord
100
AcDbLayerTableRecord
  2
cen
 70
     0
 62
     7
  6
DASHDOT
370
    -3
390
F
  0
LAYER
  5
34
330
2
100
AcDbSymbolTableRecord
100
AcDbLayerTableRecord
  2
hid
 70
     0
 62
     7
  6
HIDDEN
370
    -3
390
F
  0
LAYER
  5
35
330
2
100
AcDbSymbolTableRecord
100
AcDbLayerTableRecord
  2
hatch
 70
     0
 62
     9
  6
Continuous
370
    -3
390
F
  0
LAYER
  5
36
330
2
100
AcDbSymbolTableRecord
100
AcDbLayerTableRecord
  2
9
 70
     0
 62
     9
  6
Continuous
370
    -3
390
F
  0
LAYER
  5
37
330
2
100
AcDbSymbolTableRecord
100
AcDbLayerTableRecord
  2
cotas
 70
     0
 62
     1
  6
Continuous
370
    -3
390
F
  0
LAYER
  5
38
330
2
100
AcDbSymbolTableRecord
100
AcDbLayerTableRecord
  2
indusa
 70
     0
 62
     3
  6
Continuous
370
    -3
390
F
  0
LAYER
  5
39
330
2
100
AcDbSymbolTableRecord
100
AcDbLayerTableRecord
  2
SANINDUSA
 70
     0
 62
     3
  6
Continuous
370
    -3
390
F
  0
ENDTAB
  0
TABLE
  2
STYLE
  5
3
330
0
100
AcDbSymbolTable
 70
     2
  0
STYLE
  5
11
330
3
100
AcDbSymbolTableRecord
100
AcDbTextStyleTableRecord
  2
Standard
 70
     0
 40
0.0
 41
1.0
 50
0.0
 71
     0
 42
2.5
  3
txt
  4

  0
STYLE
  5
3A
330
3
100
AcDbSymbolTableRecord
100
AcDbTextStyleTableRecord
  2
SANINDUSA
 70
     0
 40
0.0
 41
1.0
 50
0.0
 71
     0
 42
2.5
  3
verdana.TTF
  4

1001
ACAD
1000
Verdana
1071
       34
  0
ENDTAB
  0
TABLE
  2
VIEW
  5
6
330
0
100
AcDbSymbolTable
 70
     0
  0
ENDTAB
  0
TABLE
  2
UCS
  5
7
330
0
100
AcDbSymbolTable
 70
     0
  0
ENDTAB
  0
TABLE
  2
APPID
  5
9
330
0
100
AcDbSymbolTable
 70
     3
  0
APPID
  5
12
330
9
100
AcDbSymbolTableRecord
100
AcDbRegAppTableRecord
  2
ACAD
 70
     0
  0
APPID
  5
3C
330
9
100
AcDbSymbolTableRecord
100
AcDbRegAppTableRecord
  2
DCO15
 70
     0
  0
APPID
  5
3D9
330
9
100
AcDbSymbolTableRecord
100
AcDbRegAppTableRecord
  2
ACAD_EXEMPT_FROM_CAD_STANDARDS
 70
     0
  0
ENDTAB
  0
TABLE
  2
DIMSTYLE
  5
A
330
0
100
AcDbSymbolTable
 70
     2
100
AcDbDimStyleTable
 71
     1
340
2B
  0
DIMSTYLE
105
2B
330
A
100
AcDbSymbolTableRecord
100
AcDbDimStyleTableRecord
  2
ISO-25
 70
     0
 41
2.5
 42
0.625
 43
3.75
 44
1.25
 73
     0
 74
     0
 77
     1
 78
     8
140
2.5
141
2.5
143
0.03937007874016
147
0.625
171
     3
172
     1
271
     2
272
     2
274
     3
278
    44
283
     0
284
     8
340
11
  0
DIMSTYLE
105
3B
330
A
100
AcDbSymbolTableRecord
100
AcDbDimStyleTableRecord
  2
SANINDUSA
 70
     0
 40
5.0
 41
2.0
 42
1.0
 43
1.0
 44
1.0
 73
     0
 74
     0
 77
     1
 78
     8
140
2.0
141
0.0
143
0.03937007874016
147
1.0
171
     3
172
     1
176
   256
177
   256
178
   256
179
     1
271
     1
272
     1
274
     3
278
    44
283
     0
284
     8
340
3A
371
    -1
372
    -1
  0
ENDTAB
  0
TABLE
  2
BLOCK_RECORD
  5
1
330
0
100
AcDbSymbolTable
 70
     1
  0
BLOCK_RECORD
  5
23
330
1
100
AcDbSymbolTableRecord
100
AcDbBlockTableRecord
  2
*Model_Space
340
26
  0
BLOCK_RECORD
  5
1F
330
1
100
AcDbSymbolTableRecord
100
AcDbBlockTableRecord
  2
*Paper_Space
340
22
  0
BLOCK_RECORD
  5
27
330
1
100
AcDbSymbolTableRecord
100
AcDbBlockTableRecord
  2
*Paper_Space0
340
2A
  0
ENDTAB
  0
ENDSEC
  0
SECTION
  2
BLOCKS
  0
BLOCK
  5
24
330
23
100
AcDbEntity
  8
0
100
AcDbBlockBegin
  2
*Model_Space
 70
     0
 10
0.0
 20
0.0
 30
0.0
  3
*Model_Space
  1

  0
ENDBLK
  5
25
330
23
100
AcDbEntity
  8
0
100
AcDbBlockEnd
  0
BLOCK
  5
20
330
1F
100
AcDbEntity
 67
     1
  8
0
100
AcDbBlockBegin
  2
*Paper_Space
 70
     0
 10
0.0
 20
0.0
 30
0.0
  3
*Paper_Space
  1

  0
ENDBLK
  5
21
330
1F
100
AcDbEntity
 67
     1
  8
0
100
AcDbBlockEnd
  0
BLOCK
  5
28
330
27
100
AcDbEntity
 67
     1
  8
0
100
AcDbBlockBegin
  2
*Paper_Space0
 70
     0
 10
0.0
 20
0.0
 30
0.0
  3
*Paper_Space0
  1

  0
ENDBLK
  5
29
330
27
100
AcDbEntity
 67
     1
  8
0
100
AcDbBlockEnd
  0
ENDSEC
  0
SECTION
  2
ENTITIES
  0
ARC
  5
20D
330
23
100
AcDbEntity
  8
SANINDUSA
 48
0.5
100
AcDbCircle
 10
938.8000108855264
 20
1383.566088600672
 30
0.0
 40
0.005
100
AcDbArc
 50
181.8612706383236
 51
270.0
  0
ARC
  5
20E
330
23
100
AcDbEntity
  8
SANINDUSA
 48
0.5
100
AcDbCircle
 10
938.3505356653374
 20
1383.54797445385
 30
0.0
 40
0.005
100
AcDbArc
 50
270.0
 51
346.3534204378934
  0
ARC
  5
210
330
23
100
AcDbEntity
  8
SANINDUSA
100
AcDbCircle
 10
938.3457052634707
 20
1383.54797445385
 30
0.0
 40
0.005
100
AcDbArc
 50
207.5895657101016
 51
270.0
  0
ARC
  5
211
330
23
100
AcDbEntity
  8
SANINDUSA
100
AcDbCircle
 10
938.4061877401341
 20
1383.541847484517
 30
0.0
 40
0.02
100
AcDbArc
 50
84.4257687096217
 51
89.99995989468123
  0
LINE
  5
212
330
23
100
AcDbEntity
  8
SANINDUSA
100
AcDbLine
 10
938.7052120169746
 20
1383.69028675713
 30
0.0
 11
938.6899122041032
 21
1383.569592556761
 31
0.0
  0
ARC
  5
213
330
23
100
AcDbEntity
  8
SANINDUSA
100
AcDbCircle
 10
938.6700737217106
 20
1383.572129211321
 30
0.0
 40
0.01
100
AcDbArc
 50
271.7663959239758
 51
352.7133941461968
  0
LINE
  5
214
330
23
100
AcDbEntity
  8
SANINDUSA
100
AcDbLine
 10
938.6965603149118
 20
1383.701468161726
 30
0.0
 11
938.6799929629068
 21
1383.570860884041
 31
0.0
  0
ARC
  5
215
330
23
100
AcDbEntity
  8
SANINDUSA
100
AcDbCircle
 10
938.7177646768323
 20
1380.476389991073
 30
0.0
 40
3.230287023318502
100
AcDbArc
 50
96.76370877535948
 51
97.44251929503484
  0
ARC
  5
216
330
23
100
AcDbEntity
  8
SANINDUSA
  6
Continuous
100
AcDbCircle
 10
938.8179517961921
 20
1383.79474947831
 30
0.0
 40
0.5378364668121332
100
AcDbArc
 50
193.1768478461988
 51
207.5895657101016
  0
ARC
  5
217
330
23
100
AcDbEntity
  8
SANINDUSA
100
AcDbCircle
 10
938.3994404616787
 20
1383.54184748924
 30
0.0
 40
0.02
100
AcDbArc
 50
85.82802880134089
 51
89.99995989468123
  0
LINE
  5
218
330
23
100
AcDbEntity
  8
SANINDUSA
 48
0.5
100
AcDbLine
 10
938.3557787836117
 20
1383.54297445385
 30
0.0
 11
938.3509135998549
 21
1383.54297445385
 31
0.0
  0
ARC
  5
219
330
23
100
AcDbEntity
  8
SANINDUSA
 48
0.5
100
AcDbCircle
 10
938.3629804278436
 20
1383.556847514762
 30
0.0
 40
0.005
100
AcDbArc
 50
89.99995989468123
 51
166.3534204378934
  0
LINE
  5
21A
330
23
100
AcDbEntity
  8
SANINDUSA
 48
0.5
100
AcDbLine
 10
938.4088307972442
 20
1383.561847482667
 30
0.0
 11
938.3629804313436
 21
1383.561847514762
 31
0.0
  0
LINE
  5
21B
330
23
100
AcDbEntity
  8
SANINDUSA
 48
0.5
100
AcDbLine
 10
938.3553195291698
 20
1383.546485945944
 30
0.0
 11
938.3581215802601
 21
1383.558027175798
 31
0.0
  0
ARC
  5
21C
330
23
100
AcDbEntity
  8
SANINDUSA
100
AcDbCircle
 10
938.3858744691725
 20
1383.576847498736
 30
0.0
 40
0.005
100
AcDbArc
 50
269.9999598946813
 51
36.34852644878274
  0
ARC
  5
21D
330
23
100
AcDbEntity
  8
SANINDUSA
100
AcDbCircle
 10
938.3459058605387
 20
1383.581847526714
 30
0.0
 40
0.01
100
AcDbArc
 50
204.27630611674
 51
269.9999598946813
  0
LINE
  5
21E
330
23
100
AcDbEntity
  8
SANINDUSA
 48
0.5
100
AcDbLine
 10
938.3858744656725
 20
1383.571847498736
 30
0.0
 11
938.3459058535388
 21
1383.571847526714
 31
0.0
  0
ARC
  5
21F
330
23
100
AcDbEntity
  8
SANINDUSA
  6
Continuous
100
AcDbCircle
 10
938.8179517961921
 20
1383.79474947831
 30
0.0
 40
0.5278364668121332
100
AcDbArc
 50
194.3239715018867
 51
204.27630611674
  0
ARC
  5
220
330
23
100
AcDbEntity
  8
SANINDUSA
100
AcDbCircle
 10
938.7918321484137
 20
1379.285714779451
 30
0.0
 40
4.410957882270534
100
AcDbArc
 50
95.97976699275797
 51
96.26046791516628
  0
ARC
  5
221
330
23
100
AcDbEntity
  8
SANINDUSA
100
AcDbCircle
 10
938.332831534494
 20
1383.667698724739
 30
0.0
 40
0.005
100
AcDbArc
 50
24.20799131808153
 51
95.97976699275797
  0
ARC
  5
222
330
23
100
AcDbEntity
  8
SANINDUSA
100
AcDbCircle
 10
938.3113691090796
 20
1383.665397430988
 30
0.0
 40
0.005
100
AcDbArc
 50
96.26046791516628
 51
194.3239715018867
  0
ARC
  5
223
330
23
100
AcDbEntity
  8
SANINDUSA
  6
Continuous
100
AcDbCircle
 10
938.786508892708
 20
1383.871665475649
 30
0.0
 40
0.4924189188529301
100
AcDbArc
 50
204.2079913180815
 51
216.3485264487827
  0
ARC
  5
224
330
23
100
AcDbEntity
  8
SANINDUSA
100
AcDbCircle
 10
938.4138732300943
 20
1383.581282456451
 30
0.0
 40
0.01
100
AcDbArc
 50
217.9281429830719
 51
266.9076615716397
  0
ARC
  5
227
330
23
100
AcDbEntity
  8
SANINDUSA
  6
Continuous
100
AcDbCircle
 10
938.786508892708
 20
1383.871665475649
 30
0.0
 40
0.4824189188529301
100
AcDbArc
 50
203.3302238508533
 51
217.9281429830719
  0
ARC
  5
228
330
23
100
AcDbEntity
  8
SANINDUSA
100
AcDbCircle
 10
938.338024276349
 20
1383.678236963835
 30
0.0
 40
0.006
100
AcDbArc
 50
23.33022385085336
 51
96.76370877535948
  0
ARC
  5
229
330
23
100
AcDbEntity
  8
SANINDUSA
100
AcDbCircle
 10
938.8178291800185
 20
1383.704652894833
 30
0.0
 40
0.002
100
AcDbArc
 50
0.0
 51
90.0
  0
ARC
  5
22A
330
23
100
AcDbEntity
  8
SANINDUSA
 48
0.5
100
AcDbCircle
 10
938.8148291800186
 20
1383.54797445385
 30
0.0
 40
0.005
100
AcDbArc
 50
270.0
 51
0.0
  0
LINE
  5
22C
330
23
100
AcDbEntity
  8
SANINDUSA
100
AcDbLine
 10
938.7762875212734
 20
1383.694652894833
 30
0.0
 11
938.7859901708647
 21
1383.694652894833
 31
0.0
  0
ARC
  5
22D
330
23
100
AcDbEntity
  8
SANINDUSA
100
AcDbCircle
 10
938.8058291800186
 20
1383.692652894833
 30
0.0
 40
0.004
100
AcDbArc
 50
0.0
 51
90.0
  0
ARC
  5
22E
330
23
100
AcDbEntity
  8
SANINDUSA
 48
0.5
100
AcDbCircle
 10
938.8049027103763
 20
1383.692652894833
 30
0.0
 40
0.004
100
AcDbArc
 50
90.0
 51
181.8612706383236
  0
LINE
  5
22F
330
23
100
AcDbEntity
  8
SANINDUSA
100
AcDbLine
 10
938.8058291800186
 20
1383.696652894834
 30
0.0
 11
938.8049027103763
 21
1383.696652894834
 31
0.0
  0
LINE
  5
230
330
23
100
AcDbEntity
  8
SANINDUSA
 48
0.5
100
AcDbLine
 10
938.7758291800185
 20
1383.705677014392
 30
0.0
 11
938.7758291800185
 21
1383.695677014392
 31
0.0
  0
ARC
  5
231
330
23
100
AcDbEntity
  8
SANINDUSA
 48
0.5
100
AcDbCircle
 10
938.7768291800185
 20
1383.705677014392
 30
0.0
 40
0.001
100
AcDbArc
 50
90.0
 51
180.0
  0
ARC
  5
232
330
23
100
AcDbEntity
  8
SANINDUSA
 48
0.5
100
AcDbCircle
 10
938.7768291800185
 20
1383.695677014392
 30
0.0
 40
0.001
100
AcDbArc
 50
180.0
 51
270.0
  0
LINE
  5
233
330
23
100
AcDbEntity
  8
SANINDUSA
100
AcDbLine
 10
938.7368044277456
 20
1383.69465259349
 30
0.0
 11
938.730494771906
 21
1383.69465259349
 31
0.0
  0
LINE
  5
234
330
23
100
AcDbEntity
  8
SANINDUSA
 48
0.5
100
AcDbLine
 10
938.7408297057621
 20
1383.70562914267
 30
0.0
 11
938.7408297057621
 21
1383.69562914267
 31
0.0
  0
ARC
  5
235
330
23
100
AcDbEntity
  8
SANINDUSA
 48
0.5
100
AcDbCircle
 10
938.739829705762
 20
1383.69562914267
 30
0.0
 40
0.001
100
AcDbArc
 50
270.0
 51
0.0
  0
ARC
  5
236
330
23
100
AcDbEntity
  8
SANINDUSA
 48
0.5
100
AcDbCircle
 10
938.739829705762
 20
1383.70562914267
 30
0.0
 40
0.001
100
AcDbArc
 50
0.0
 51
90.0
  0
LINE
  5
237
330
23
100
AcDbEntity
  8
SANINDUSA
100
AcDbLine
 10
938.8178291800185
 20
1383.706652894833
 30
0.0
 11
938.7788242870987
 21
1383.706652894833
 31
0.0
  0
LINE
  5
239
330
23
100
AcDbEntity
  8
SANINDUSA
100
AcDbLine
 10
938.7762875212734
 20
1383.694652894833
 30
0.0
 11
938.7368289755798
 21
1383.694652894833
 31
0.0
  0
LINE
  5
23A
330
23
100
AcDbEntity
  8
SANINDUSA
 48
0.5
100
AcDbLine
 10
938.7077061858903
 20
1383.54297445385
 30
0.0
 11
938.8108291800186
 21
1383.54297445385
 31
0.0
  0
ARC
  5
23B
330
23
100
AcDbEntity
  8
SANINDUSA
 48
0.5
100
AcDbCircle
 10
938.8148291800186
 20
1383.566088600672
 30
0.0
 40
0.005
100
AcDbArc
 50
270.0
 51
0.0
  0
ARC
  5
23C
330
23
100
AcDbEntity
  8
SANINDUSA
 48
0.5
100
AcDbCircle
 10
938.8148291800186
 20
1383.62887445385
 30
0.0
 40
0.005
100
AcDbArc
 50
270.0
 51
0.0
  0
ARC
  5
23D
330
23
100
AcDbEntity
  8
SANINDUSA
 48
0.5
100
AcDbCircle
 10
938.8068291800186
 20
1383.63687445385
 30
0.0
 40
0.003
100
AcDbArc
 50
270.0
 51
0.0
  0
LINE
  5
23E
330
23
100
AcDbEntity
  8
SANINDUSA
 48
0.5
100
AcDbLine
 10
938.8068291800186
 20
1383.63387445385
 30
0.0
 11
938.8056185605588
 21
1383.63387445385
 31
0.0
  0
ARC
  5
23F
330
23
100
AcDbEntity
  8
SANINDUSA
 48
0.5
100
AcDbCircle
 10
938.7978743113862
 20
1383.62887445385
 30
0.0
 40
0.005
100
AcDbArc
 50
181.8612706383236
 51
270.0
  0
LINE
  5
240
330
23
100
AcDbEntity
  8
SANINDUSA
 48
0.5
100
AcDbLine
 10
938.8148291800186
 20
1383.561088600672
 30
0.0
 11
938.8000108855264
 21
1383.561088600672
 31
0.0
  0
LINE
  5
241
330
23
100
AcDbEntity
  8
SANINDUSA
 48
0.5
100
AcDbLine
 10
938.8148291800186
 20
1383.62387445385
 30
0.0
 11
938.7978743113862
 21
1383.62387445385
 31
0.0
  0
ARC
  5
242
330
23
100
AcDbEntity
  8
SANINDUSA
 48
0.5
100
AcDbCircle
 10
938.8056185605588
 20
1383.63687445385
 30
0.0
 40
0.003
100
AcDbArc
 50
181.8612706383236
 51
270.0
  0
LINE
  5
243
330
23
100
AcDbEntity
  8
SANINDUSA
 48
0.5
100
AcDbLine
 10
938.8198291800186
 20
1383.631835952716
 30
0.0
 11
938.8198291800186
 21
1383.54797445385
 31
0.0
  0
LINE
  5
244
330
23
100
AcDbEntity
  8
SANINDUSA
 48
0.5
100
AcDbLine
 10
938.7928769493912
 20
1383.631673554778
 30
0.0
 11
938.7909875328597
 21
1383.689815292771
 31
0.0
  0
LINE
  5
245
330
23
100
AcDbEntity
  8
SANINDUSA
100
AcDbLine
 10
938.8198291800186
 20
1383.704652894833
 30
0.0
 11
938.8198291800186
 21
1383.631835952716
 31
0.0
  0
LINE
  5
246
330
23
100
AcDbEntity
  8
SANINDUSA
100
AcDbLine
 10
938.8098291800186
 20
1383.692652894833
 30
0.0
 11
938.8098291800186
 21
1383.63687445385
 31
0.0
  0
LINE
  5
247
330
23
100
AcDbEntity
  8
SANINDUSA
 48
0.5
100
AcDbLine
 10
938.7950135235312
 20
1383.565926202734
 30
0.0
 11
938.7928769493912
 21
1383.631673554778
 31
0.0
  0
LINE
  5
248
330
23
100
AcDbEntity
  8
SANINDUSA
 48
0.5
100
AcDbLine
 10
938.8027407567255
 20
1383.63602696043
 30
0.0
 11
938.8009048207802
 21
1383.692522976483
 31
0.0
  0
ARC
  5
249
330
23
100
AcDbEntity
  8
SANINDUSA
100
AcDbCircle
 10
938.7025078866003
 20
1383.700676713048
 30
0.0
 40
0.006
100
AcDbArc
 50
90.0
 51
172.420131193606
  0
ARC
  5
24B
330
23
100
AcDbEntity
  8
SANINDUSA
100
AcDbCircle
 10
938.7148243676415
 20
1381.381361255224
 30
0.0
 40
2.325348075902265
100
AcDbArc
 50
90.3034752914862
 51
99.14980617794483
  0
ARC
  5
24C
330
23
100
AcDbEntity
  8
SANINDUSA
100
AcDbCircle
 10
938.38908135058
 20
1383.54184748924
 30
0.0
 40
0.02
100
AcDbArc
 50
85.82802880134089
 51
89.99995989468123
  0
ARC
  5
24D
330
23
100
AcDbEntity
  8
SANINDUSA
100
AcDbCircle
 10
938.7074629035591
 20
1380.475803179137
 30
0.0
 40
3.230876319188057
100
AcDbArc
 50
90.07104727107032
 51
97.44059039470549
  0
LINE
  5
24E
330
23
100
AcDbEntity
  8
SANINDUSA
100
AcDbLine
 10
938.7828969374259
 20
1383.706677014392
 30
0.0
 11
938.7034565894859
 21
1383.706677014392
 31
0.0
  0
LINE
  5
24F
330
23
100
AcDbEntity
  8
SANINDUSA
100
AcDbLine
 10
938.8178291800185
 20
1383.706677014392
 30
0.0
 11
938.7788242870987
 21
1383.706677014392
 31
0.0
  0
LINE
  5
250
330
23
100
AcDbEntity
  8
SANINDUSA
 48
0.5
100
AcDbLine
 10
938.7077061858903
 20
1383.54297445385
 30
0.0
 11
938.8148291800186
 21
1383.54297445385
 31
0.0
  0
LINE
  5
251
330
23
100
AcDbEntity
  8
SANINDUSA
 48
0.5
100
AcDbLine
 10
938.3355077764717
 20
1383.54297445385
 30
0.0
 11
938.5721951543295
 21
1383.54297445385
 31
0.0
  0
LINE
  5
252
330
23
100
AcDbEntity
  8
SANINDUSA
 48
0.5
100
AcDbLine
 10
938.8198291800186
 20
1383.631860072275
 30
0.0
 11
938.8198291800186
 21
1383.54797445385
 31
0.0
  0
LINE
  5
253
330
23
100
AcDbEntity
  8
SANINDUSA
100
AcDbLine
 10
938.8198291800186
 20
1383.704677014392
 30
0.0
 11
938.8198291800186
 21
1383.631860072275
 31
0.0
  0
ARC
  5
254
330
23
100
AcDbEntity
  8
SANINDUSA
100
AcDbCircle
 10
938.2898291800186
 20
1383.67352260581
 30
0.0
 40
0.006
100
AcDbArc
 50
97.2637328826682
 51
193.2100257828373
  0
ARC
  5
255
330
23
100
AcDbEntity
  8
SANINDUSA
100
AcDbCircle
 10
938.8148291800186
 20
1383.54797445385
 30
0.0
 40
0.005
100
AcDbArc
 50
270.0
 51
0.0
  0
ARC
  5
256
330
23
100
AcDbEntity
  8
SANINDUSA
100
AcDbCircle
 10
938.3355077764717
 20
1383.54797445385
 30
0.0
 40
0.005
100
AcDbArc
 50
207.6270678195956
 51
270.0
  0
ARC
  5
257
330
23
100
AcDbEntity
  8
SANINDUSA
  6
Continuous
100
AcDbCircle
 10
938.8075926850934
 20
1383.795058527429
 30
0.0
 40
0.5378364668121332
100
AcDbArc
 50
193.2100257828373
 51
207.6270678195956
  0
ARC
  5
258
330
23
100
AcDbEntity
  8
SANINDUSA
100
AcDbCircle
 10
938.8178291800185
 20
1383.704677014392
 30
0.0
 40
0.002
100
AcDbArc
 50
0.0
 51
90.0
  0
ARC
  5
25A
330
23
100
AcDbEntity
  8
SANINDUSA
100
AcDbCircle
 10
938.3001180008085
 20
1383.67351339544
 30
0.0
 40
0.006
100
AcDbArc
 50
97.44251929503484
 51
193.1768478461988
  0
LINE
  5
25B
330
23
100
AcDbEntity
  8
SANINDUSA
100
AcDbLine
 10
938.343058667513
 20
1383.681501149125
 30
0.0
 11
938.3412884616388
 21
1383.683271354999
 31
0.0
  0
ARC
  5
27E
330
23
100
AcDbEntity
  8
SANINDUSA
 48
0.5
100
AcDbCircle
 10
938.7859901708647
 20
1383.689652894833
 30
0.0
 40
0.005
100
AcDbArc
 50
1.861270638323577
 51
90.0
  0
ARC
  5
27F
330
23
100
AcDbEntity
  8
SANINDUSA
100
AcDbCircle
 10
938.7101716375729
 20
1383.68965259349
 30
0.0
 40
0.005
100
AcDbArc
 50
90.0
 51
172.7133941461968
  0
ARC
  5
282
330
23
100
AcDbEntity
  8
SANINDUSA
100
AcDbCircle
 10
938.5671397509041
 20
1383.544473725046
 30
0.0
 40
0.005
100
AcDbArc
 50
2.000000003753602
 51
49.13748991105688
  0
ARC
  5
283
330
23
100
AcDbEntity
  8
SANINDUSA
 48
0.5
100
AcDbCircle
 10
938.5742437129303
 20
1383.512960755142
 30
0.0
 40
0.001
100
AcDbArc
 50
180.9999999968082
 51
270.0
  0
ARC
  5
284
330
23
100
AcDbEntity
  8
SANINDUSA
 48
0.5
100
AcDbCircle
 10
938.639278584079
 20
1383.512960755142
 30
0.0
 40
0.001
100
AcDbArc
 50
270.0
 51
359.0000000031918
  0
LINE
  5
285
330
23
100
AcDbEntity
  8
SANINDUSA
 48
0.5
100
AcDbLine
 10
938.6311818041477
 20
1383.511960755142
 30
0.0
 11
938.639278584079
 21
1383.511960755142
 31
0.0
  0
LINE
  5
286
330
23
100
AcDbEntity
  8
SANINDUSA
 48
0.5
100
AcDbLine
 10
938.5823404928615
 20
1383.511960755142
 30
0.0
 11
938.5742437129303
 21
1383.511960755142
 31
0.0
  0
LINE
  5
287
330
23
100
AcDbEntity
  8
SANINDUSA
100
AcDbLine
 10
938.573243865235
 20
1383.512943302735
 30
0.0
 11
938.5721367050392
 21
1383.544648222529
 31
0.0
  0
LINE
  5
288
330
23
100
AcDbEntity
  8
SANINDUSA
100
AcDbLine
 10
938.6311818041477
 20
1383.511960755142
 30
0.0
 11
938.5823405769896
 21
1383.511953137178
 31
0.0
  0
LINE
  5
289
330
23
100
AcDbEntity
  8
SANINDUSA
100
AcDbLine
 10
938.5704109814126
 20
1383.54825513364
 30
0.0
 11
938.5680455859164
 21
1383.550301395957
 31
0.0
  0
ARC
  5
28A
330
23
100
AcDbEntity
  8
SANINDUSA
100
AcDbCircle
 10
938.6352821448536
 20
1383.54872203147
 30
0.0
 40
0.0049999999999999
100
AcDbArc
 50
127.1593795033207
 51
179.8058930255629
  0
LINE
  5
28B
330
23
100
AcDbEntity
  8
SANINDUSA
100
AcDbLine
 10
938.5822402075906
 20
1383.51195694616
 30
0.0
 11
938.6312821735467
 21
1383.51195694616
 31
0.0
  0
ARC
  5
28C
330
23
100
AcDbEntity
  8
SANINDUSA
100
AcDbCircle
 10
938.5741809388976
 20
1383.51295694616
 30
0.0
 40
0.001
100
AcDbArc
 50
180.9999999968082
 51
270.0
  0
ARC
  5
28D
330
23
100
AcDbEntity
  8
SANINDUSA
 48
0.5
100
AcDbCircle
 10
938.5822402075906
 20
1383.51295694616
 30
0.0
 40
0.001
100
AcDbArc
 50
270.0
 51
0.0
  0
ARC
  5
28E
330
23
100
AcDbEntity
  8
SANINDUSA
 48
0.5
100
AcDbCircle
 10
938.6392994762834
 20
1383.51295694616
 30
0.0
 40
0.001
100
AcDbArc
 50
270.0
 51
359.0000000031918
  0
ARC
  5
28F
330
23
100
AcDbEntity
  8
SANINDUSA
 48
0.5
100
AcDbCircle
 10
938.6458430092776
 20
1383.544043569333
 30
0.0
 40
0.005
100
AcDbArc
 50
130.2671368434152
 51
179.0000000031918
  0
LINE
  5
290
330
23
100
AcDbEntity
  8
SANINDUSA
 48
0.5
100
AcDbLine
 10
938.6426112481315
 20
1383.547858765251
 30
0.0
 11
938.6455348923208
 21
1383.550335314267
 31
0.0
  0
LINE
  5
291
330
23
100
AcDbEntity
  8
SANINDUSA
 48
0.5
100
AcDbLine
 10
938.6322619735834
 20
1383.552706823246
 30
0.0
 11
938.6400049650978
 21
1383.559265726031
 31
0.0
  0
ARC
  5
292
330
23
100
AcDbEntity
  8
SANINDUSA
100
AcDbCircle
 10
938.5782402075905
 20
1383.548625407869
 30
0.0
 40
0.005
100
AcDbArc
 50
0.0
 51
49.99999999819078
  0
LINE
  5
293
330
23
100
AcDbEntity
  8
SANINDUSA
100
AcDbLine
 10
938.5832402075905
 20
1383.51295694616
 30
0.0
 11
938.5832402075905
 21
1383.548625407869
 31
0.0
  0
LINE
  5
294
330
23
100
AcDbEntity
  8
SANINDUSA
 48
0.5
100
AcDbLine
 10
938.6312821735467
 20
1383.51195694616
 30
0.0
 11
938.6392994762834
 21
1383.51195694616
 31
0.0
  0
LINE
  5
295
330
23
100
AcDbEntity
  8
SANINDUSA
 48
0.5
100
AcDbLine
 10
938.581454145639
 20
1383.552455630085
 30
0.0
 11
938.5738392810848
 21
1383.559063162169
 31
0.0
  0
LINE
  5
296
330
23
100
AcDbEntity
  8
SANINDUSA
 48
0.5
100
AcDbLine
 10
938.5822402075906
 20
1383.51195694616
 30
0.0
 11
938.5741809388976
 21
1383.51195694616
 31
0.0
  0
LINE
  5
297
330
23
100
AcDbEntity
  8
SANINDUSA
 48
0.5
100
AcDbLine
 10
938.6432826207959
 20
1383.56105259349
 30
0.0
 11
938.5703757392253
 21
1383.56105259349
 31
0.0
  0
ARC
  5
298
330
23
100
AcDbEntity
  8
SANINDUSA
100
AcDbCircle
 10
938.6068066003641
 20
1384.917556693545
 30
0.0
 40
1.356504100243313
100
AcDbArc
 50
269.9990462854886
 51
270.0009537145113
  0
ARC
  5
299
330
23
100
AcDbEntity
  8
SANINDUSA
 48
0.5
100
AcDbCircle
 10
938.6394138314001
 20
1383.51295694616
 30
0.0
 40
0.001
100
AcDbArc
 50
270.0
 51
0.0
  0
LINE
  5
29A
330
23
100
AcDbEntity
  8
SANINDUSA
100
AcDbLine
 10
938.6314107199895
 20
1383.51195694616
 30
0.0
 11
938.6394138314001
 21
1383.51195694616
 31
0.0
  0
LINE
  5
29B
330
23
100
AcDbEntity
  8
SANINDUSA
 48
0.5
100
AcDbLine
 10
938.6404138314
 20
1383.51295694616
 30
0.0
 11
938.6404138314
 21
1383.5153133396
 31
0.0
  0
LINE
  5
29C
330
23
100
AcDbEntity
  8
SANINDUSA
 48
0.5
100
AcDbLine
 10
938.6302896060035
 20
1383.548705092473
 30
0.0
 11
938.6302896060035
 21
1383.540857090991
 31
0.0
  0
LINE
  5
29F
330
23
100
AcDbEntity
  8
SANINDUSA
 48
0.5
100
AcDbLine
 10
938.6312611905687
 20
1383.51195694616
 30
0.0
 11
938.6394273819211
 21
1383.51195694616
 31
0.0
  0
LINE
  5
2A0
330
23
100
AcDbEntity
  8
SANINDUSA
 48
0.5
100
AcDbLine
 10
938.6404273819211
 20
1383.51295694616
 30
0.0
 11
938.6404273819211
 21
1383.5153133396
 31
0.0
  0
ARC
  5
2A1
330
23
100
AcDbEntity
  8
SANINDUSA
 48
0.5
100
AcDbCircle
 10
938.6394273819211
 20
1383.51295694616
 30
0.0
 40
0.001
100
AcDbArc
 50
270.0
 51
0.0
  0
ARC
  5
2A6
330
23
100
AcDbEntity
  8
SANINDUSA
100
AcDbCircle
 10
938.6312611905687
 20
1383.526654941803
 30
0.0
 40
0.0010000000000008
100
AcDbArc
 50
100.9182899795415
 51
180.0
  0
LINE
  5
2A9
330
23
100
AcDbEntity
  8
SANINDUSA
100
AcDbLine
 10
938.6302611905685
 20
1383.526654941803
 30
0.0
 11
938.6302611905685
 21
1383.51295694616
 31
0.0
  0
ARC
  5
2AA
330
23
100
AcDbEntity
  8
SANINDUSA
100
AcDbCircle
 10
938.6312611905687
 20
1383.51295694616
 30
0.0
 40
0.001
100
AcDbArc
 50
180.0
 51
270.0
  0
LINE
  5
2AB
330
23
100
AcDbEntity
  8
SANINDUSA
 48
0.5
100
AcDbLine
 10
938.6302821735467
 20
1383.539631851002
 30
0.0
 11
938.6408017927037
 21
1383.541725907733
 31
0.0
  0
LINE
  5
2AC
330
23
100
AcDbEntity
  8
SANINDUSA
 48
0.5
100
AcDbLine
 10
938.6322829565612
 20
1383.552706823246
 30
0.0
 11
938.6411825178017
 21
1383.560245428564
 31
0.0
  0
LINE
  5
2B2
330
23
100
AcDbEntity
  8
SANINDUSA
 48
0.5
100
AcDbLine
 10
938.6303031565246
 20
1383.548705092473
 30
0.0
 11
938.6303031565246
 21
1383.539636341503
 31
0.0
  0
ARC
  5
2B4
330
23
100
AcDbEntity
  8
SANINDUSA
100
AcDbCircle
 10
938.6353031278316
 20
1383.54872203147
 30
0.0
 40
0.005
100
AcDbArc
 50
127.1593795033207
 51
180.1941069874646
  0
ARC
  5
2B5
330
23
100
AcDbEntity
  8
SANINDUSA
 48
0.5
100
AcDbCircle
 10
938.639278584079
 20
1383.512960755142
 30
0.0
 40
0.001
100
AcDbArc
 50
270.0
 51
359.0000000031918
  0
LINE
  5
2B6
330
23
100
AcDbEntity
  8
SANINDUSA
 48
0.5
100
AcDbLine
 10
938.6311818041477
 20
1383.511960755142
 30
0.0
 11
938.639278584079
 21
1383.511960755142
 31
0.0
  0
ARC
  5
2B8
330
23
100
AcDbEntity
  8
SANINDUSA
100
AcDbCircle
 10
938.6453324631654
 20
1383.514794402154
 30
0.0
 40
0.005
100
AcDbArc
 50
99.4042078364043
 51
179.0000000031918
  0
LINE
  5
2BA
330
23
100
AcDbEntity
  8
SANINDUSA
100
AcDbLine
 10
938.6313291800187
 20
1383.51195694616
 30
0.0
 11
938.5823291800186
 21
1383.51195694616
 31
0.0
  0
ARC
  5
2BD
330
23
100
AcDbEntity
  8
SANINDUSA
100
AcDbCircle
 10
938.6067675628844
 20
1385.432735068836
 30
0.0
 40
1.871682475418215
100
AcDbArc
 50
271.1494446508133
 51
271.94968177225
  0
ARC
  5
2BE
330
23
100
AcDbEntity
  8
SANINDUSA
100
AcDbCircle
 10
938.644414278948
 20
1383.556430232645
 30
0.0
 40
0.005
100
AcDbArc
 50
91.14944465081327
 51
130.2671368434152
  0
ARC
  5
2BF
330
23
100
AcDbEntity
  8
SANINDUSA
100
AcDbCircle
 10
938.6087675628843
 20
1385.432735370179
 30
0.0
 40
1.871682475418215
100
AcDbArc
 50
263.9903347400517
 51
268.7367994985457
  0
ARC
  5
2C0
330
23
100
AcDbEntity
  8
SANINDUSA
100
AcDbCircle
 10
938.6067675628844
 20
1385.432735068836
 30
0.0
 40
1.881682475418215
100
AcDbArc
 50
271.2755561413484
 51
271.94968177225
  0
ARC
  5
2C1
330
23
100
AcDbEntity
  8
SANINDUSA
100
AcDbCircle
 10
938.6087675628843
 20
1385.432735370179
 30
0.0
 40
1.881682475418215
100
AcDbArc
 50
263.9054468837978
 51
268.6622136934903
  0
ARC
  5
2C2
330
23
100
AcDbEntity
  8
SANINDUSA
100
AcDbCircle
 10
938.6700737217106
 20
1383.572129211321
 30
0.0
 40
0.02
100
AcDbArc
 50
271.7663959239758
 51
352.7133941461968
  0
ARC
  5
2C3
330
23
100
AcDbEntity
  8
SANINDUSA
100
AcDbCircle
 10
938.6487666534669
 20
1383.546520118349
 30
0.0
 40
0.005
100
AcDbArc
 50
91.27555614134845
 51
130.2671368434152
  0
ARC
  5
2C5
330
23
100
AcDbEntity
  8
SANINDUSA
100
AcDbCircle
 10
938.7031314459823
 20
1383.681825687929
 30
0.0
 40
0.001
100
AcDbArc
 50
261.253829231319
 51
352.7754282537848
  0
LINE
  5
2C6
330
23
100
AcDbEntity
  8
SANINDUSA
100
AcDbLine
 10
938.7029793886513
 20
1383.680837316254
 30
0.0
 11
938.6950788310917
 21
1383.682052787849
 31
0.0
  0
ARC
  5
2C7
330
23
100
AcDbEntity
  8
SANINDUSA
100
AcDbCircle
 10
938.6952308884227
 20
1383.683041159524
 30
0.0
 40
0.001
100
AcDbArc
 50
172.7707192810314
 51
261.253829231319
  0
ARC
  5
2C8
330
23
100
AcDbEntity
  8
SANINDUSA
100
AcDbCircle
 10
938.699480197118
 20
1383.653022423096
 30
0.0
 40
0.001
100
AcDbArc
 50
352.7754282537848
 51
81.25382923131905
  0
ARC
  5
2C9
330
23
100
AcDbEntity
  8
SANINDUSA
100
AcDbCircle
 10
938.6915772802746
 20
1383.654238257658
 30
0.0
 40
0.001
100
AcDbArc
 50
81.25382923131905
 51
172.7707192810314
  0
LINE
  5
2CA
330
23
100
AcDbEntity
  8
SANINDUSA
100
AcDbLine
 10
938.699632254449
 20
1383.654010794771
 30
0.0
 11
938.6917293376056
 21
1383.655226629333
 31
0.0
  0
ARC
  5
2D0
330
23
100
AcDbEntity
  8
SANINDUSA
100
AcDbCircle
 10
938.5672854552185
 20
1383.551510191462
 30
0.0
 40
0.01
100
AcDbArc
 50
49.05133393289787
 51
88.73679949854576
  0
ARC
  5
2D1
330
23
100
AcDbEntity
  8
SANINDUSA
100
AcDbCircle
 10
938.5647198392536
 20
1383.546567148335
 30
0.0
 40
0.005
100
AcDbArc
 50
49.13748991105688
 51
88.6622136934903
  0
LINE
  5
2D2
330
23
100
AcDbEntity
  8
SANINDUSA
100
AcDbLine
 10
938.7199021823731
 20
1383.62426671962
 30
0.0
 11
938.7255523038463
 21
1383.689815292771
 31
0.0
  0
ARC
  5
2D3
330
23
100
AcDbEntity
  8
SANINDUSA
100
AcDbCircle
 10
938.7305496658415
 20
1383.689652894833
 30
0.0
 40
0.005
100
AcDbArc
 50
90.0
 51
178.1387293616764
  0
LINE
  5
2D4
330
23
100
AcDbEntity
  8
SANINDUSA
100
AcDbLine
 10
938.7400463625446
 20
1383.694652894833
 30
0.0
 11
938.7305496658415
 21
1383.694652894833
 31
0.0
  0
ARC
  5
2D5
330
23
100
AcDbEntity
  8
SANINDUSA
100
AcDbCircle
 10
938.7104826836459
 20
1383.689652894833
 30
0.0
 40
0.005
100
AcDbArc
 50
355.0734259087247
 51
90.0
  0
LINE
  5
2D6
330
23
100
AcDbEntity
  8
SANINDUSA
100
AcDbLine
 10
938.709829759947
 20
1383.623856717424
 30
0.0
 11
938.7154642115069
 21
1383.689223499712
 31
0.0
  0
LINE
  5
2D7
330
23
100
AcDbEntity
  8
SANINDUSA
100
AcDbLine
 10
938.6445154710839
 20
1383.519727213579
 30
0.0
 11
938.6914319051374
 21
1383.527497718917
 31
0.0
  0
LINE
  5
2D8
330
23
100
AcDbEntity
  8
SANINDUSA
100
AcDbLine
 10
938.709829759947
 20
1383.623856717424
 30
0.0
 11
938.6980521874592
 21
1383.545738117339
 31
0.0
  0
ARC
  5
2D9
330
23
100
AcDbEntity
  8
SANINDUSA
100
AcDbCircle
 10
938.6700869037634
 20
1383.628560670836
 30
0.0
 40
0.05
100
AcDbArc
 50
351.4263568436319
 51
355.0734259087247
  0
LINE
  5
2DA
330
23
100
AcDbEntity
  8
SANINDUSA
100
AcDbLine
 10
938.7195281570003
 20
1383.621106646529
 30
0.0
 11
938.7079404381065
 21
1383.544247312478
 31
0.0
  0
ARC
  5
2DB
330
23
100
AcDbEntity
  8
SANINDUSA
100
AcDbCircle
 10
938.6881639368118
 20
1383.547228922201
 30
0.0
 40
0.01
100
AcDbArc
 50
279.4042078364043
 51
351.4263568436319
  0
ARC
  5
2DC
330
23
100
AcDbEntity
  8
SANINDUSA
100
AcDbCircle
 10
938.6881639368118
 20
1383.547228922201
 30
0.0
 40
0.02
100
AcDbArc
 50
279.4042078364043
 51
351.4263568436319
  0
LINE
  5
2DD
330
23
100
AcDbEntity
  8
SANINDUSA
100
AcDbLine
 10
938.6310717816741
 20
1383.527636840102
 30
0.0
 11
938.6897979209747
 21
1383.537363320559
 31
0.0
  0
LINE
  5
2DF
330
23
100
AcDbEntity
  8
SANINDUSA
100
AcDbLine
 10
938.710537577581
 20
1383.69465259349
 30
0.0
 11
938.7101716375729
 21
1383.69465259349
 31
0.0
  0
LINE
  5
2E0
330
23
100
AcDbEntity
  8
SANINDUSA
100
AcDbLine
 10
938.6408437708018
 20
1383.544130831365
 30
0.0
 11
938.6408017927037
 21
1383.541725907733
 31
0.0
  0
LINE
  5
310
330
23
100
AcDbEntity
  8
SANINDUSA
100
AcDbLine
 10
935.6967261056858
 20
1383.658574745398
 30
0.0
 11
935.6366520132899
 21
1383.659101796151
 31
0.0
  0
ARC
  5
314
330
23
100
AcDbEntity
  8
SANINDUSA
 48
0.5
100
AcDbCircle
 10
936.0115270824641
 20
1380.77642675175
 30
0.0
 40
2.915818212467287
100
AcDbArc
 50
89.92189147058949
 51
97.24086326152463
  0
LINE
  5
315
330
23
100
AcDbEntity
  8
SANINDUSA
 48
0.5
100
AcDbLine
 10
936.2120756858315
 20
1383.812071952968
 30
0.0
 11
936.2120955168411
 21
1383.812071950794
 31
0.0
  0
LINE
  5
316
330
23
100
AcDbEntity
  8
SANINDUSA
 48
0.5
100
AcDbLine
 10
936.212075884296
 20
1383.814071952958
 30
0.0
 11
936.21209573609
 21
1383.814071950782
 31
0.0
  0
LINE
  5
317
330
23
100
AcDbEntity
  8
SANINDUSA
 48
0.5
100
AcDbLine
 10
936.2121155878838
 20
1383.814071948606
 30
0.0
 11
936.21209573609
 21
1383.814071950782
 31
0.0
  0
LINE
  5
318
330
23
100
AcDbEntity
  8
SANINDUSA
 48
0.5
100
AcDbLine
 10
936.2121153478504
 20
1383.81207194862
 30
0.0
 11
936.2120955168411
 21
1383.812071950794
 31
0.0
  0
LINE
  5
319
330
23
100
AcDbEntity
  8
SANINDUSA
 48
0.5
100
AcDbLine
 10
936.2120558138911
 20
1383.812071956384
 30
0.0
 11
936.2121351782109
 21
1383.812071946034
 31
0.0
  0
LINE
  5
31A
330
23
100
AcDbEntity
  8
SANINDUSA
 48
0.5
100
AcDbLine
 10
936.212095736089
 20
1383.814071951195
 30
0.0
 11
936.2121354390399
 21
1383.814071946017
 31
0.0
  0
LINE
  5
31B
330
23
100
AcDbEntity
  8
SANINDUSA
 48
0.5
100
AcDbLine
 10
936.2120161109421
 20
1383.814071955559
 30
0.0
 11
936.2119764079906
 21
1383.814071954734
 31
0.0
  0
LINE
  5
31C
330
23
100
AcDbEntity
  8
SANINDUSA
 48
0.5
100
AcDbLine
 10
936.2120558138911
 20
1383.812071956384
 30
0.0
 11
936.2119764495709
 21
1383.812071954734
 31
0.0
  0
LINE
  5
31D
330
23
100
AcDbEntity
  8
SANINDUSA
 48
0.5
100
AcDbLine
 10
936.2119962799313
 20
1383.812071955147
 30
0.0
 11
936.2120161109411
 21
1383.812071955147
 31
0.0
  0
LINE
  5
31E
330
23
100
AcDbEntity
  8
SANINDUSA
 48
0.5
100
AcDbLine
 10
936.2119962591469
 20
1383.814071955147
 30
0.0
 11
936.2120161109411
 21
1383.814071955147
 31
0.0
  0
LINE
  5
31F
330
23
100
AcDbEntity
  8
SANINDUSA
 48
0.5
100
AcDbLine
 10
936.2120359627349
 20
1383.814071955147
 30
0.0
 11
936.2120161109411
 21
1383.814071955147
 31
0.0
  0
LINE
  5
320
330
23
100
AcDbEntity
  8
SANINDUSA
 48
0.5
100
AcDbLine
 10
936.2120359419506
 20
1383.812071955147
 30
0.0
 11
936.2120161109411
 21
1383.812071955147
 31
0.0
  0
LINE
  5
321
330
23
100
AcDbEntity
  8
SANINDUSA
 48
0.5
100
AcDbLine
 10
936.2120161109379
 20
1383.812071955559
 30
0.0
 11
936.2120557723111
 21
1383.812071954734
 31
0.0
  0
LINE
  5
322
330
23
100
AcDbEntity
  8
SANINDUSA
 48
0.5
100
AcDbLine
 10
936.2120161109228
 20
1383.814071955559
 30
0.0
 11
936.2120558138911
 21
1383.814071954734
 31
0.0
  0
LINE
  5
323
330
23
100
AcDbEntity
  8
SANINDUSA
 48
0.5
100
AcDbLine
 10
936.2122542454988
 20
1383.814071955559
 30
0.0
 11
936.2122145425304
 21
1383.814071954734
 31
0.0
  0
LINE
  5
324
330
23
100
AcDbEntity
  8
SANINDUSA
 48
0.5
100
AcDbLine
 10
936.2122542454837
 20
1383.812071955559
 30
0.0
 11
936.2122145841107
 21
1383.812071954734
 31
0.0
  0
LINE
  5
325
330
23
100
AcDbEntity
  8
SANINDUSA
 48
0.5
100
AcDbLine
 10
936.2122344144712
 20
1383.812071955147
 30
0.0
 11
936.2122542454809
 21
1383.812071955147
 31
0.0
  0
LINE
  5
326
330
23
100
AcDbEntity
  8
SANINDUSA
 48
0.5
100
AcDbLine
 10
936.2122343936867
 20
1383.814071955147
 30
0.0
 11
936.2122542454809
 21
1383.814071955147
 31
0.0
  0
LINE
  5
327
330
23
100
AcDbEntity
  8
SANINDUSA
 48
0.5
100
AcDbLine
 10
936.2122740972747
 20
1383.814071955147
 30
0.0
 11
936.2122542454809
 21
1383.814071955147
 31
0.0
  0
LINE
  5
328
330
23
100
AcDbEntity
  8
SANINDUSA
 48
0.5
100
AcDbLine
 10
936.2122740764904
 20
1383.812071955147
 30
0.0
 11
936.2122542454809
 21
1383.812071955147
 31
0.0
  0
LINE
  5
329
330
23
100
AcDbEntity
  8
SANINDUSA
 48
0.5
100
AcDbLine
 10
936.2122145425304
 20
1383.812071956384
 30
0.0
 11
936.2122939068509
 21
1383.812071954734
 31
0.0
  0
LINE
  5
32A
330
23
100
AcDbEntity
  8
SANINDUSA
 48
0.5
100
AcDbLine
 10
936.2122542454796
 20
1383.814071955559
 30
0.0
 11
936.212293948431
 21
1383.814071954734
 31
0.0
  0
LINE
  5
32B
330
23
100
AcDbEntity
  8
SANINDUSA
 48
0.5
100
AcDbLine
 10
936.2121746203328
 20
1383.814071951195
 30
0.0
 11
936.2121349173817
 21
1383.814071946017
 31
0.0
  0
LINE
  5
32C
330
23
100
AcDbEntity
  8
SANINDUSA
 48
0.5
100
AcDbLine
 10
936.2122145425304
 20
1383.812071956384
 30
0.0
 11
936.2121351782109
 21
1383.812071946034
 31
0.0
  0
LINE
  5
32F
330
23
100
AcDbEntity
  8
SANINDUSA
  6
Continuous
100
AcDbLine
 10
935.6967261056858
 20
1383.658574745398
 30
0.0
 11
935.7035231370765
 21
1383.658663219995
 31
0.0
  0
LINE
  5
330
330
23
100
AcDbEntity
  8
SANINDUSA
 48
0.5
100
AcDbLine
 10
936.2121550085712
 20
1383.81207194862
 30
0.0
 11
936.2121748395807
 21
1383.812071950794
 31
0.0
  0
LINE
  5
331
330
23
100
AcDbEntity
  8
SANINDUSA
 48
0.5
100
AcDbLine
 10
936.2121547685378
 20
1383.814071948606
 30
0.0
 11
936.2121746203316
 21
1383.814071950782
 31
0.0
  0
LINE
  5
332
330
23
100
AcDbEntity
  8
SANINDUSA
 48
0.5
100
AcDbLine
 10
936.2121944721256
 20
1383.814071952958
 30
0.0
 11
936.2121746203316
 21
1383.814071950782
 31
0.0
  0
LINE
  5
333
330
23
100
AcDbEntity
  8
SANINDUSA
 48
0.5
100
AcDbLine
 10
936.2121946705901
 20
1383.812071952968
 30
0.0
 11
936.2121748395807
 21
1383.812071950794
 31
0.0
  0
LWPOLYLINE
  5
339
330
23
100
AcDbEntity
  8
SANINDUSA
100
AcDbPolyline
 90
       13
 70
   128
 43
0.0
 10
936.1410696311155
 20
1383.606837805407
 10
936.1388278387735
 20
1383.618922153221
 10
936.137053631012
 20
1383.624782429098
 10
936.1346557640032
 20
1383.630379046463
 10
936.1316337627837
 20
1383.63568312377
 10
936.1280221918873
 20
1383.640643504707
 10
936.1239016993881
 20
1383.645148356331
 10
936.119341269349
 20
1383.649123065869
 10
936.1143413113435
 20
1383.652589994215
 10
936.1090022387418
 20
1383.655477564027
 10
936.1037371651116
 20
1383.657622676759
 10
936.0982356332126
 20
1383.659223279702
 10
936.0871101523795
 20
1383.661242968257
  0
ARC
  5
33B
330
23
100
AcDbEntity
  8
SANINDUSA
 48
0.5
100
AcDbCircle
 10
935.9062741953556
 20
1381.998056074881
 30
0.0
 40
1.672938756212163
100
AcDbArc
 50
83.77050185818225
 51
96.96104840702018
  0
LWPOLYLINE
  5
33F
330
23
100
AcDbEntity
  8
SANINDUSA
  6
Continuous
100
AcDbPolyline
 90
        6
 70
   128
 43
0.0
 10
935.6366520132899
 20
1383.659101796151
 10
935.6368366039898
 20
1383.661931706543
 10
935.6382107876624
 20
1383.664900701137
 10
935.6394037913061
 20
1383.666242640163
 10
935.6408290537997
 20
1383.667343513859
 10
935.6442517767003
 20
1383.668800834092
  0
LWPOLYLINE
  5
340
330
23
100
AcDbEntity
  8
SANINDUSA
  6
Continuous
100
AcDbPolyline
 90
        6
 70
   128
 43
0.0
 10
935.6337601139424
 20
1383.669010843464
 10
935.634203882436
 20
1383.666888785574
 10
935.6345945302885
 20
1383.66480375756
 10
935.6354761993225
 20
1383.661842256238
 10
935.6366446372566
 20
1383.659116849554
 10
935.6366520132899
 20
1383.659101796151
  0
CIRCLE
  5
342
330
23
100
AcDbEntity
  8
SANINDUSA
 48
0.5
100
AcDbCircle
 10
936.0568002187003
 20
1383.752571954734
 30
0.0
 40
0.0175
  0
LINE
  5
343
330
23
100
AcDbEntity
  8
SANINDUSA
 48
0.5
100
AcDbLine
 10
935.5866559352431
 20
1383.814016383602
 30
0.0
 11
936.2122143232816
 21
1383.814071954722
 31
0.0
  0
LWPOLYLINE
  5
344
330
23
100
AcDbEntity
  8
SANINDUSA
100
AcDbPolyline
 90
        4
 70
   128
 43
0.0
 10
935.6295239419223
 20
1383.762336968786
 10
935.6297481416673
 20
1383.757522579502
 10
935.6304485253241
 20
1383.742483086678
 10
935.6311492955418
 20
1383.725464332617
  0
LINE
  5
347
330
23
100
AcDbEntity
  8
SANINDUSA
 48
0.5
100
AcDbLine
 10
935.584669681377
 20
1383.659277477571
 30
0.0
 11
935.5846561129199
 21
1383.812016205941
 31
0.0
  0
LWPOLYLINE
  5
349
330
23
100
AcDbEntity
  8
SANINDUSA
100
AcDbPolyline
 90
        3
 70
   128
 43
0.0
 10
935.6311492955418
 20
1383.725464332617
 10
935.6335358748051
 20
1383.680235159732
 10
935.6336754666612
 20
1383.677690521692
  0
CIRCLE
  5
34C
330
23
100
AcDbEntity
  8
SANINDUSA
 48
0.5
100
AcDbCircle
 10
936.0567985769934
 20
1383.601168973412
 30
0.0
 40
0.0235000000000037
  0
LWPOLYLINE
  5
34D
330
23
100
AcDbEntity
  8
SANINDUSA
100
AcDbPolyline
 90
        6
 70
   128
 43
0.0
 10
936.1591585046518
 20
1383.652580014461
 10
936.1594951843473
 20
1383.651911349054
 10
936.1616464142409
 20
1383.647084498456
 10
936.1633943287046
 20
1383.64209885012
 10
936.1647600030742
 20
1383.636843925856
 10
936.1656841948867
 20
1383.63149537793
  0
LWPOLYLINE
  5
34E
330
23
100
AcDbEntity
  8
SANINDUSA
100
AcDbPolyline
 90
        5
 70
   128
 43
0.0
 10
936.1478173728579
 20
1383.668128363715
 10
936.1510529353507
 20
1383.66462612553
 10
936.1540297206339
 20
1383.660866323404
 10
936.1567466638184
 20
1383.656834386944
 10
936.1591585046518
 20
1383.652580014461
  0
LWPOLYLINE
  5
34F
330
23
100
AcDbEntity
  8
SANINDUSA
100
AcDbPolyline
 90
        5
 70
   128
 43
0.0
 10
936.1322670088828
 20
1383.679466732873
 10
936.1364969042627
 20
1383.677071045798
 10
936.1405542289205
 20
1383.674339421155
 10
936.1442933343559
 20
1383.671381449215
 10
936.1478173728579
 20
1383.668128363715
  0
LWPOLYLINE
  5
350
330
23
100
AcDbEntity
  8
SANINDUSA
100
AcDbPolyline
 90
        5
 70
   128
 43
0.0
 10
936.1111812132731
 20
1383.685988676921
 10
936.1165606588604
 20
1383.685058792093
 10
936.1218452491739
 20
1383.683682312146
 10
936.1271475884969
 20
1383.68180266099
 10
936.1322670088828
 20
1383.679466732873
  0
LWPOLYLINE
  5
351
330
23
100
AcDbEntity
  8
SANINDUSA
100
AcDbPolyline
 90
        5
 70
   128
 43
0.0
 10
936.0155020733081
 20
1383.692242254761
 10
936.0210445366805
 20
1383.692315067083
 10
936.0509998316587
 20
1383.691464528413
 10
936.0811378293917
 20
1383.689352434889
 10
936.1111812132731
 20
1383.685988676921
  0
CIRCLE
  5
354
330
23
100
AcDbEntity
  8
SANINDUSA
 48
0.5
100
AcDbCircle
 10
936.0567985769934
 20
1383.601168973412
 30
0.0
 40
0.0413644683651874
  0
ARC
  5
359
330
23
100
AcDbEntity
  8
SANINDUSA
100
AcDbCircle
 10
935.1505011617231
 20
1383.516475627681
 30
0.0
 40
1.021668472472313
100
AcDbArc
 50
349.9639083068725
 51
6.482534872850463
  0
ARC
  5
35B
330
23
100
AcDbEntity
  8
SANINDUSA
100
AcDbCircle
 10
935.1718049537906
 20
1383.517288735144
 30
0.0
 40
0.973392547071718
100
AcDbArc
 50
353.023958827873
 51
5.278496158765537
  0
LINE
  5
362
330
23
100
AcDbEntity
  8
SANINDUSA
100
AcDbLine
 10
936.2846630749059
 20
1383.810065504717
 30
0.0
 11
936.2846630749059
 21
1383.280057123056
 31
0.0
  0
LINE
  5
363
330
23
100
AcDbEntity
  8
SANINDUSA
 48
0.5
100
AcDbLine
 10
936.2846630749059
 20
1383.814065504717
 30
0.0
 11
936.2120560331399
 21
1383.814071954722
 31
0.0
  0
LINE
  5
364
330
23
100
AcDbEntity
  8
SANINDUSA
100
AcDbLine
 10
936.2846630749059
 20
1383.584048753655
 30
0.0
 11
936.2846630749059
 21
1383.280057123056
 31
0.0
  0
LINE
  5
365
330
23
100
AcDbEntity
  8
SANINDUSA
100
AcDbLine
 10
936.2826759608463
 20
1383.278057123056
 30
0.0
 11
936.1991820902714
 21
1383.278057123056
 31
0.0
  0
ELLIPSE
  5
366
330
23
100
AcDbEntity
  8
SANINDUSA
100
AcDbEllipse
 10
936.1991820902714
 20
1383.659277477571
 30
0.0
 11
-0.6145124064694873
 21
0.0
 31
0.0
210
0.0
220
0.0
230
-1.0
 40
0.62036234012838
 41
4.712388980384689
 42
6.283185307179586
  0
SPLINE
  5
36B
330
23
100
AcDbEntity
  8
SANINDUSA
100
AcDbSpline
210
0.0
220
0.0
230
1.0
 70
     8
 71
     3
 72
     8
 73
     4
 74
     0
 42
0.0000000001
 43
0.0000000001
 40
6.409573963661431
 40
6.409573963661431
 40
6.409573963661431
 40
6.409573963661431
 40
6.410782754826703
 40
6.410782754826703
 40
6.410782754826703
 40
6.410782754826703
 10
935.6326764256474
 20
1383.696522980185
 30
0.0
 10
935.6327020446876
 20
1383.696648056414
 30
0.0
 10
935.6327277874649
 20
1383.696773132802
 30
0.0
 10
935.6327536540064
 20
1383.696898209346
 30
0.0
  0
SPLINE
  5
36C
330
23
100
AcDbEntity
  8
SANINDUSA
100
AcDbSpline
210
0.0
220
0.0
230
1.0
 70
     8
 71
     3
 72
    32
 73
    28
 74
     0
 42
0.0000000001
 43
0.0000000001
 40
4.789334109683407
 40
4.789334109683407
 40
4.789334109683407
 40
4.789334109683407
 40
4.790638109815699
 40
4.790638109815699
 40
4.931784021571828
 40
4.931784021571828
 40
5.072929933327957
 40
5.072929933327957
 40
5.214075845084086
 40
5.214075845084086
 40
5.355221756840215
 40
5.355221756840215
 40
5.496367668596344
 40
5.496367668596344
 40
5.637513580352473
 40
5.637513580352473
 40
5.750736624054984
 40
5.750736624054984
 40
5.863959667757494
 40
5.863959667757494
 40
5.977182711460005
 40
5.977182711460005
 40
6.090405755162516
 40
6.090405755162516
 40
6.203628798865026
 40
6.203628798865026
 40
6.283185307179586
 40
6.283185307179586
 40
6.283185307179586
 40
6.283185307179586
 10
936.1542861755738
 20
1383.328134735963
 30
0.0
 10
936.1540331052712
 20
1383.328146839754
 30
0.0
 10
936.1537800489198
 20
1383.328159045907
 30
0.0
 10
936.1261375410103
 20
1383.329503636398
 30
0.0
 10
936.0989147159083
 20
1383.332036924201
 30
0.0
 10
936.045395589174
 20
1383.339440281754
 30
0.0
 10
936.0190997020023
 20
1383.344310380468
 30
0.0
 10
935.9680099149587
 20
1383.356259738288
 30
0.0
 10
935.9432164842621
 20
1383.363339044082
 30
0.0
 10
935.895675410935
 20
1383.379515632471
 30
0.0
 10
935.8729283567191
 20
1383.388612956103
 30
0.0
 10
935.8299766022
 20
1383.408569383014
 30
0.0
 10
935.809772713554
 20
1383.41942842532
 30
0.0
 10
935.7723360593327
 20
1383.442586876544
 30
0.0
 10
935.7551044277228
 20
1383.454885849175
 30
0.0
 10
935.7270265684528
 20
1383.478005722973
 30
0.0
 10
935.7155908638823
 20
1383.488636748502
 30
0.0
 10
935.6949522861143
 20
1383.510366477133
 30
0.0
 10
935.6857497036068
 20
1383.52146432353
 30
0.0
 10
935.6696190670286
 20
1383.543919102907
 30
0.0
 10
935.6626907392476
 20
1383.555274828663
 30
0.0
 10
935.6510805014989
 20
1383.578073093803
 30
0.0
 10
935.6463973373355
 20
1383.589514655874
 30
0.0
 10
935.6392011463228
 20
1383.612384329203
 30
0.0
 10
935.6366861617898
 20
1383.623812746352
 30
0.0
 10
935.6341884822834
 20
1383.643247937461
 30
0.0
 10
935.6336752908347
 20
1383.651262816518
 30
0.0
 10
935.6336752908347
 20
1383.659277477571
 30
0.0
  0
LINE
  5
370
330
23
100
AcDbEntity
  8
SANINDUSA
  6
Continuous
100
AcDbLine
 10
936.1379030263401
 20
1383.392269003706
 30
0.0
 11
936.1379915009379
 21
1383.399066035097
 31
0.0
  0
LINE
  5
371
330
23
100
AcDbEntity
  8
SANINDUSA
100
AcDbLine
 10
935.6336754666612
 20
1383.657298216315
 30
0.0
 11
935.6336754666612
 21
1383.677690521692
 31
0.0
  0
LWPOLYLINE
  5
372
330
23
100
AcDbEntity
  8
SANINDUSA
100
AcDbPolyline
 90
        3
 70
   128
 43
0.0
 10
936.2636702299349
 20
1383.322706511653
 10
936.1676392389799
 20
1383.327773718436
 10
936.1542861755738
 20
1383.328134735963
  0
LINE
  5
373
330
23
100
AcDbEntity
  8
SANINDUSA
100
AcDbLine
 10
936.1379030263401
 20
1383.392269003706
 30
0.0
 11
936.1468475212793
 21
1383.330829393609
 31
0.0
  0
LWPOLYLINE
  5
377
330
23
100
AcDbEntity
  8
SANINDUSA
  6
Continuous
100
AcDbPolyline
 90
        6
 70
   128
 43
0.0
 10
936.1468475212793
 20
1383.330829393609
 10
936.1496774316716
 20
1383.331013984309
 10
936.1526464262647
 20
1383.332388167982
 10
936.1539883652907
 20
1383.333581171626
 10
936.1550892389871
 20
1383.335006434119
 10
936.1565362403622
 20
1383.338431003523
  0
LWPOLYLINE
  5
378
330
23
100
AcDbEntity
  8
SANINDUSA
  6
Continuous
100
AcDbPolyline
 90
        6
 70
   128
 43
0.0
 10
936.1567652905117
 20
1383.328136437171
 10
936.1546380185702
 20
1383.328445208134
 10
936.152549482688
 20
1383.328771910608
 10
936.1495879813666
 20
1383.329653579642
 10
936.1468625746827
 20
1383.330822017576
 10
936.1468475212793
 20
1383.330829393609
  0
SPLINE
  5
379
330
23
100
AcDbEntity
  8
SANINDUSA
100
AcDbSpline
210
0.0
220
0.0
230
1.0
 70
     8
 71
     3
 72
    34
 73
    30
 74
     0
 42
0.0000000001
 43
0.0000000001
 40
4.825845958380594
 40
4.825845958380594
 40
4.825845958380594
 40
4.825845958380594
 40
4.922449296371055
 40
4.922449296371055
 40
5.055342086700224
 40
5.055342086700224
 40
5.188234877029393
 40
5.188234877029393
 40
5.321127667358562
 40
5.321127667358562
 40
5.454020457687732
 40
5.454020457687732
 40
5.561896779474644
 40
5.561896779474644
 40
5.669773101261557
 40
5.669773101261557
 40
5.77764942304847
 40
5.77764942304847
 40
5.885525744835383
 40
5.885525744835383
 40
5.972183956280406
 40
5.972183956280406
 40
6.058842167725429
 40
6.058842167725429
 40
6.145500379170452
 40
6.145500379170452
 40
6.232158590615475
 40
6.232158590615475
 40
6.283185307179586
 40
6.283185307179586
 40
6.283185307179586
 40
6.283185307179586
 10
936.1379915009379
 20
1383.399066035097
 30
0.0
 10
936.1207179662956
 20
1383.40028741086
 30
0.0
 10
936.1035635957248
 20
1383.402024416014
 30
0.0
 10
936.0633329251218
 20
1383.407345512132
 30
0.0
 10
936.0404531304581
 20
1383.411378451055
 30
0.0
 10
935.9960352493196
 20
1383.421217386263
 30
0.0
 10
935.9744976074704
 20
1383.427023547505
 30
0.0
 10
935.9332473845551
 20
1383.44021119798
 30
0.0
 10
935.9135354490236
 20
1383.44759288511
 30
0.0
 10
935.876377669243
 20
1383.463660625031
 30
0.0
 10
935.8589328330268
 20
1383.472346786424
 30
0.0
 10
935.8297192104783
 20
1383.48894903605
 30
0.0
 10
935.8174998987047
 20
1383.496701426452
 30
0.0
 10
935.7949505364075
 20
1383.512609508435
 30
0.0
 10
935.7846211987014
 20
1383.520764779389
 30
0.0
 10
935.7659382790538
 20
1383.537227867885
 30
0.0
 10
935.7575854332045
 20
1383.545534700654
 30
0.0
 10
935.7428552456639
 20
1383.562043912246
 30
0.0
 10
935.73647822208
 20
1383.570244540753
 30
0.0
 10
935.726665090635
 20
1383.584737776236
 30
0.0
 10
935.7228959310779
 20
1383.591088233015
 30
0.0
 10
935.7164610437834
 20
1383.603507538655
 30
0.0
 10
935.7137945296814
 20
1383.609575758534
 30
0.0
 10
935.7094374458792
 20
1383.621421322995
 30
0.0
 10
935.7077456664939
 20
1383.627198588508
 30
0.0
 10
935.7052152637526
 20
1383.63852760325
 30
0.0
 10
935.704375437049
 20
1383.644080137802
 30
0.0
 10
935.7036553957902
 20
1383.652826511466
 30
0.0
 10
935.7035231281852
 20
1383.656052024084
 30
0.0
 10
935.7035231281852
 20
1383.659277477571
 30
0.0
  0
LINE
  5
37D
330
23
100
AcDbEntity
  8
SANINDUSA
100
AcDbLine
 10
936.6007468232144
 20
1383.683637211404
 30
0.0
 11
937.2067267869146
 21
1383.683637211404
 31
0.0
  0
LINE
  5
37F
330
23
100
AcDbEntity
  8
SANINDUSA
100
AcDbLine
 10
936.5617591661493
 20
1383.67947445385
 30
0.0
 11
937.2067267869146
 21
1383.67947445385
 31
0.0
  0
ARC
  5
381
330
23
100
AcDbEntity
  8
SANINDUSA
100
AcDbCircle
 10
937.0567235320763
 20
1380.685501016671
 30
0.0
 40
3.021480694170133
100
AcDbArc
 50
90.0
 51
97.12688938339752
  0
ARC
  5
382
330
23
100
AcDbEntity
  8
SANINDUSA
100
AcDbCircle
 10
937.0541616438449
 20
1379.28602382857
 30
0.0
 40
4.420957882270534
100
AcDbArc
 50
89.92718397028125
 51
96.39482292923782
  0
ARC
  5
383
330
23
100
AcDbEntity
  8
SANINDUSA
100
AcDbCircle
 10
936.5625177865485
 20
1383.67352260581
 30
0.0
 40
0.006
100
AcDbArc
 50
97.2637328826682
 51
193.2100257828373
  0
LINE
  5
384
330
23
100
AcDbEntity
  8
SANINDUSA
 48
0.5
100
AcDbLine
 10
936.61780926877
 20
1383.5429746561
 30
0.0
 11
936.6132142661273
 21
1383.542974659316
 31
0.0
  0
ARC
  5
385
330
23
100
AcDbEntity
  8
SANINDUSA
100
AcDbCircle
 10
936.6082280668123
 20
1383.547967049025
 30
0.0
 40
0.005
100
AcDbArc
 50
208.7763371336052
 51
266.8813715934042
  0
ARC
  5
386
330
23
100
AcDbEntity
  8
SANINDUSA
  6
Continuous
100
AcDbCircle
 10
937.0787338913066
 20
1383.794590841392
 30
0.0
 40
0.5362231458197014
100
AcDbArc
 50
193.199159419955
 51
207.6724503094717
  0
LINE
  5
387
330
23
100
AcDbEntity
  8
SANINDUSA
 48
0.5
100
AcDbLine
 10
936.6181082829321
 20
1383.54297445385
 30
0.0
 11
936.6079560495053
 21
1383.54297445385
 31
0.0
  0
LINE
  5
388
330
23
100
AcDbEntity
  8
SANINDUSA
 48
0.5
100
AcDbLine
 10
937.0541616438449
 20
1383.706981710841
 30
0.0
 11
937.2067267869146
 21
1383.706981710841
 31
0.0
  0
LINE
  5
389
330
23
100
AcDbEntity
  8
SANINDUSA
 48
0.5
100
AcDbLine
 10
936.6181082829321
 20
1383.54297445385
 30
0.0
 11
937.2067267869146
 21
1383.54297445385
 31
0.0
  0
LINE
  5
38A
330
23
100
AcDbEntity
  8
SANINDUSA
100
AcDbLine
 10
937.2565177865483
 20
1383.67947445385
 30
0.0
 11
937.2067267869224
 21
1383.67947445385
 31
0.0
  0
LINE
  5
38E
330
23
100
AcDbEntity
  8
SANINDUSA
100
AcDbLine
 10
936.2846630749059
 20
1383.544061313887
 30
0.0
 11
936.2846630749059
 21
1383.814065504717
 31
0.0
  0
LINE
  5
38F
330
23
100
AcDbEntity
  8
SANINDUSA
 48
0.5
100
AcDbLine
 10
937.2565177865483
 20
1383.54297445385
 30
0.0
 11
937.2067267869224
 21
1383.54297445385
 31
0.0
  0
LINE
  5
390
330
23
100
AcDbEntity
  8
SANINDUSA
100
AcDbLine
 10
937.2565177865483
 20
1383.683637211404
 30
0.0
 11
937.2067267869224
 21
1383.683637211404
 31
0.0
  0
LINE
  5
391
330
23
100
AcDbEntity
  8
SANINDUSA
 48
0.5
100
AcDbLine
 10
937.2565177865483
 20
1383.706981710841
 30
0.0
 11
937.2067267869224
 21
1383.706981710841
 31
0.0
  0
LINE
  5
392
330
23
100
AcDbEntity
  8
SANINDUSA
100
AcDbLine
 10
937.2565177865483
 20
1383.54297445385
 30
0.0
 11
937.2565177865483
 21
1383.706981710841
 31
0.0
  0
ARC
  5
394
330
23
100
AcDbEntity
  8
SANINDUSA
100
AcDbCircle
 10
937.5410663925661
 20
1383.704677014392
 30
0.0
 40
0.002
100
AcDbArc
 50
90.0
 51
180.0
  0
ARC
  5
396
330
23
100
AcDbEntity
  8
SANINDUSA
  6
Continuous
100
AcDbCircle
 10
937.5513028874912
 20
1383.795058527429
 30
0.0
 40
0.5378364668121332
100
AcDbArc
 50
332.3729321804044
 51
346.7899742171627
  0
ARC
  5
397
330
23
100
AcDbEntity
  8
SANINDUSA
100
AcDbCircle
 10
938.0233877961128
 20
1383.54797445385
 30
0.0
 40
0.005
100
AcDbArc
 50
270.0
 51
332.3729321804044
  0
ARC
  5
398
330
23
100
AcDbEntity
  8
SANINDUSA
100
AcDbCircle
 10
937.544066392566
 20
1383.54797445385
 30
0.0
 40
0.005
100
AcDbArc
 50
180.0
 51
270.0
  0
ARC
  5
399
330
23
100
AcDbEntity
  8
SANINDUSA
100
AcDbCircle
 10
938.069066392566
 20
1383.67352260581
 30
0.0
 40
0.006
100
AcDbArc
 50
346.7899742171627
 51
82.7362671173318
  0
LINE
  5
39A
330
23
100
AcDbEntity
  8
SANINDUSA
100
AcDbLine
 10
937.539066392566
 20
1383.704677014392
 30
0.0
 11
937.539066392566
 21
1383.631860072275
 31
0.0
  0
LINE
  5
39B
330
23
100
AcDbEntity
  8
SANINDUSA
 48
0.5
100
AcDbLine
 10
937.539066392566
 20
1383.631860072275
 30
0.0
 11
937.539066392566
 21
1383.54797445385
 31
0.0
  0
LINE
  5
39C
330
23
100
AcDbEntity
  8
SANINDUSA
 48
0.5
100
AcDbLine
 10
938.0233877961128
 20
1383.54297445385
 30
0.0
 11
937.653751963449
 21
1383.54297445385
 31
0.0
  0
LINE
  5
39D
330
23
100
AcDbEntity
  8
SANINDUSA
 48
0.5
100
AcDbLine
 10
938.0134759000716
 20
1383.54297445385
 30
0.0
 11
938.0183410838284
 21
1383.54297445385
 31
0.0
  0
LINE
  5
39E
330
23
100
AcDbEntity
  8
SANINDUSA
 48
0.5
100
AcDbLine
 10
937.653751963449
 20
1383.54297445385
 30
0.0
 11
937.544066392566
 21
1383.54297445385
 31
0.0
  0
LINE
  5
39F
330
23
100
AcDbEntity
  8
SANINDUSA
100
AcDbLine
 10
937.5410663925661
 20
1383.706677014392
 30
0.0
 11
937.5840712854857
 21
1383.706677014392
 31
0.0
  0
LINE
  5
3A0
330
23
100
AcDbEntity
  8
SANINDUSA
100
AcDbLine
 10
937.5759986351585
 20
1383.706677014392
 30
0.0
 11
937.6554389830989
 21
1383.706677014392
 31
0.0
  0
LINE
  5
3A1
330
23
100
AcDbEntity
  8
SANINDUSA
100
AcDbLine
 10
938.0698250129652
 20
1383.67947445385
 30
0.0
 11
937.539066392566
 21
1383.67947445385
 31
0.0
  0
LINE
  5
3A3
330
23
100
AcDbEntity
  8
SANINDUSA
100
AcDbLine
 10
938.0198371002942
 20
1383.685607134206
 30
0.0
 11
937.539066392566
 21
1383.685607134206
 31
0.0
  0
ELLIPSE
  5
3A4
330
23
100
AcDbEntity
  8
SANINDUSA
 48
0.5
100
AcDbEllipse
 10
937.6773366670413
 20
1383.706677014392
 30
0.0
 11
-0.025846660190251
 21
0.0
 31
0.0
210
0.0
220
0.0
230
-1.0
 40
0.9893439771908665
 41
5.314806890605351
 42
6.283185307179586
  0
ARC
  5
3A7
330
23
100
AcDbEntity
  8
SANINDUSA
100
AcDbCircle
 10
937.6514900068512
 20
1380.476389991073
 30
0.0
 40
3.230287023318502
100
AcDbArc
 50
82.55907018686787
 51
90.0
  0
ARC
  5
3A8
330
23
100
AcDbEntity
  8
SANINDUSA
100
AcDbCircle
 10
937.6553210092353
 20
1381.473592130781
 30
0.0
 40
2.232504685561516
100
AcDbArc
 50
82.23141770847123
 51
90.09814752715433
  0
ARC
  5
3AB
330
23
100
AcDbEntity
  8
SANINDUSA
100
AcDbCircle
 10
936.282663074906
 20
1383.280057123056
 30
0.0
 40
0.002
100
AcDbArc
 50
270.0
 51
0.0
  0
LWPOLYLINE
  5
3AC
330
23
100
AcDbEntity
  8
SANINDUSA
100
AcDbPolyline
 90
        7
 70
   128
 43
0.0
 10
937.1377133163207
 20
1383.705013086102
 10
937.1409618386737
 20
1383.703173696976
 10
937.1430290791687
 20
1383.701068479778
 10
937.1439094469408
 20
1383.698672158533
 10
937.1435973511246
 20
1383.695959457268
 10
937.1420258240171
 20
1383.692806573879
 10
937.1346923239039
 20
1383.683637211404
  0
LWPOLYLINE
  5
3B0
330
23
100
AcDbEntity
  8
SANINDUSA
100
AcDbPolyline
 90
        5
 70
   128
 43
0.0
 10
937.0934615349741
 20
1383.706981710841
 10
937.1213859391799
 20
1383.706587957319
 10
937.1247110399149
 20
1383.706514546039
 10
937.1277528286793
 20
1383.706417917427
 10
937.1304531476678
 20
1383.706298894247
  0
LWPOLYLINE
  5
3B7
330
23
100
AcDbEntity
  8
SANINDUSA
100
AcDbPolyline
 90
        6
 70
   128
 43
0.0
 10
937.1304469882604
 20
1383.706298707005
 10
937.1308560009305
 20
1383.706256103587
 10
937.1332303808747
 20
1383.705974298978
 10
937.1351732308204
 20
1383.705675485046
 10
937.136683133658
 20
1383.705354078108
 10
937.1377133163207
 20
1383.705013086102
  0
LWPOLYLINE
  5
3B9
330
23
100
AcDbEntity
  8
SANINDUSA
100
AcDbPolyline
 90
        4
 70
   128
 43
0.0
 10
936.0430655151079
 20
1383.685725867251
 10
936.0427622232435
 20
1383.685621861463
 10
936.042092454646
 20
1383.685229488781
 10
936.0418831511688
 20
1383.684835332006
  0
LWPOLYLINE
  5
3BA
330
23
100
AcDbEntity
  8
SANINDUSA
100
AcDbPolyline
 90
       16
 70
   128
 43
0.0
 10
936.0434760420552
 20
1383.683915739597
 10
936.0436625038596
 20
1383.683856530631
 10
936.0450288859933
 20
1383.683574402614
 10
936.046715800993
 20
1383.68333547792
 10
936.0486819439854
 20
1383.683141328402
 10
936.0508531109067
 20
1383.682997320699
 10
936.0531823510877
 20
1383.682903170372
 10
936.0555869893339
 20
1383.682861134689
 10
936.0580135942486
 20
1383.682870379101
 10
936.0603856464662
 20
1383.682931129037
 10
936.062644164758
 20
1383.683041790726
 10
936.0647268989465
 20
1383.683201519912
 10
936.0665749313074
 20
1383.683406852228
 10
936.068142432563
 20
1383.68365622798
 10
936.0693797455155
 20
1383.683943038674
 10
936.0694317128878
 20
1383.683962118456
  0
LWPOLYLINE
  5
3BB
330
23
100
AcDbEntity
  8
SANINDUSA
100
AcDbPolyline
 90
        7
 70
   128
 43
0.0
 10
936.0694317128878
 20
1383.683962118456
 10
936.0702555711073
 20
1383.684264597384
 10
936.0707399984157
 20
1383.684610490958
 10
936.070769281674
 20
1383.68506912321
 10
936.0703230809095
 20
1383.685441334663
 10
936.069475531714
 20
1383.685805470243
 10
936.0694096277097
 20
1383.685823884576
  0
LWPOLYLINE
  5
3BC
330
23
100
AcDbEntity
  8
SANINDUSA
100
AcDbPolyline
 90
       15
 70
   128
 43
0.0
 10
936.0694096277097
 20
1383.685823884576
 10
936.0682442035106
 20
1383.68614951745
 10
936.0666673165104
 20
1383.686461784984
 10
936.0647954403468
 20
1383.686728724273
 10
936.0626764384775
 20
1383.686942546994
 10
936.0603994087071
 20
1383.687092016142
 10
936.0580051665037
 20
1383.687175135699
 10
936.0555919874832
 20
1383.687187521958
 10
936.0532006575471
 20
1383.687131202413
 10
936.0509089044201
 20
1383.68700804913
 10
936.0487696886506
 20
1383.686824001944
 10
936.0468318648933
 20
1383.686583676711
 10
936.0451593566692
 20
1383.686298003518
 10
936.0437841973615
 20
1383.685972320004
 10
936.0430655151079
 20
1383.685725867251
  0
LWPOLYLINE
  5
3BD
330
23
100
AcDbEntity
  8
SANINDUSA
100
AcDbPolyline
 90
        4
 70
   128
 43
0.0
 10
936.0418831511688
 20
1383.684835332006
 10
936.0420931787336
 20
1383.684495896615
 10
936.0426650750254
 20
1383.684173253562
 10
936.0434760420552
 20
1383.683915739597
  0
LINE
  5
3BF
330
23
100
AcDbEntity
  8
SANINDUSA
100
AcDbLine
 10
937.0620351118819
 20
1383.513004864177
 30
0.0
 11
937.0630816730146
 21
1383.54297445385
 31
0.0
  0
LINE
  5
3C0
330
23
100
AcDbEntity
  8
SANINDUSA
100
AcDbLine
 10
936.9950004612149
 20
1383.513004864177
 30
0.0
 11
936.9939539000823
 21
1383.54297445385
 31
0.0
  0
LINE
  5
3C1
330
23
100
AcDbEntity
  8
SANINDUSA
100
AcDbLine
 10
937.0529384001276
 20
1383.512022316583
 30
0.0
 11
937.0040971729693
 21
1383.51201469862
 31
0.0
  0
ARC
  5
3C2
330
23
100
AcDbEntity
  8
SANINDUSA
 48
0.5
100
AcDbCircle
 10
937.0610351800587
 20
1383.513022316583
 30
0.0
 40
0.001
100
AcDbArc
 50
270.0
 51
359.0000000031918
  0
LINE
  5
3C3
330
23
100
AcDbEntity
  8
SANINDUSA
 48
0.5
100
AcDbLine
 10
937.0529384001276
 20
1383.512022316583
 30
0.0
 11
937.0610351800587
 21
1383.512022316583
 31
0.0
  0
LINE
  5
3C4
330
23
100
AcDbEntity
  8
SANINDUSA
 48
0.5
100
AcDbLine
 10
937.0040970888414
 20
1383.512022316583
 30
0.0
 11
936.9960003089101
 21
1383.512022316583
 31
0.0
  0
ARC
  5
3C5
330
23
100
AcDbEntity
  8
SANINDUSA
 48
0.5
100
AcDbCircle
 10
936.9960003089101
 20
1383.513022316583
 30
0.0
 40
0.001
100
AcDbArc
 50
180.9999999968082
 51
270.0
  0
ARC
  5
3C7
330
23
100
AcDbEntity
  8
SANINDUSA
100
AcDbCircle
 10
937.6707316357727
 20
1383.547228922201
 30
0.0
 40
0.02
100
AcDbArc
 50
192.2819993911662
 51
260.5957921635957
  0
LINE
  5
3C8
330
23
100
AcDbEntity
  8
SANINDUSA
100
AcDbLine
 10
937.7856517073494
 20
1383.512943302735
 30
0.0
 11
937.7867004182551
 21
1383.54297445385
 31
0.0
  0
ARC
  5
3C9
330
23
100
AcDbEntity
  8
SANINDUSA
 48
0.5
100
AcDbCircle
 10
937.7846518596543
 20
1383.512960755142
 30
0.0
 40
0.001
100
AcDbArc
 50
270.0
 51
359.0000000031918
  0
ARC
  5
3CA
330
23
100
AcDbEntity
  8
SANINDUSA
100
AcDbCircle
 10
937.7847146336868
 20
1383.51295694616
 30
0.0
 40
0.001
100
AcDbArc
 50
270.0
 51
359.0000000031918
  0
LINE
  5
3CB
330
23
100
AcDbEntity
  8
SANINDUSA
100
AcDbLine
 10
937.7195960963012
 20
1383.51195694616
 30
0.0
 11
937.7847146336868
 21
1383.51195694616
 31
0.0
  0
ARC
  5
3CC
330
23
100
AcDbEntity
  8
SANINDUSA
 48
0.5
100
AcDbCircle
 10
937.7196169885056
 20
1383.512960755142
 30
0.0
 40
0.001
100
AcDbArc
 50
180.9999999968082
 51
270.0
  0
ARC
  5
3CD
330
23
100
AcDbEntity
  8
SANINDUSA
 48
0.5
100
AcDbCircle
 10
937.7195960963012
 20
1383.51295694616
 30
0.0
 40
0.001
100
AcDbArc
 50
180.9999999968082
 51
270.0
  0
ARC
  5
3CE
330
23
100
AcDbEntity
  8
SANINDUSA
 48
0.5
100
AcDbCircle
 10
937.7194817411846
 20
1383.51295694616
 30
0.0
 40
0.001
100
AcDbArc
 50
180.0
 51
270.0
  0
LINE
  5
3CF
330
23
100
AcDbEntity
  8
SANINDUSA
 48
0.5
100
AcDbLine
 10
937.7184817411846
 20
1383.51295694616
 30
0.0
 11
937.7184817411846
 21
1383.5153133396
 31
0.0
  0
LINE
  5
3D0
330
23
100
AcDbEntity
  8
SANINDUSA
 48
0.5
100
AcDbLine
 10
937.7184681906634
 20
1383.51295694616
 30
0.0
 11
937.7184681906634
 21
1383.5153133396
 31
0.0
  0
ARC
  5
3D1
330
23
100
AcDbEntity
  8
SANINDUSA
 48
0.5
100
AcDbCircle
 10
937.7194681906633
 20
1383.51295694616
 30
0.0
 40
0.001
100
AcDbArc
 50
180.0
 51
270.0
  0
ARC
  5
3D2
330
23
100
AcDbEntity
  8
SANINDUSA
 48
0.5
100
AcDbCircle
 10
937.7196169885056
 20
1383.512960755142
 30
0.0
 40
0.001
100
AcDbArc
 50
180.9999999968082
 51
270.0
  0
LINE
  5
3D3
330
23
100
AcDbEntity
  8
SANINDUSA
100
AcDbLine
 10
937.7186820997819
 20
1383.512338835227
 30
0.0
 11
937.7186897187417
 21
1383.512346454186
 31
0.0
  0
LINE
  5
3D4
330
23
100
AcDbEntity
  8
SANINDUSA
100
AcDbLine
 10
937.7187566964019
 20
1383.512413431846
 30
0.0
 11
937.7187709298622
 21
1383.512427665307
 31
0.0
  0
ARC
  5
3D5
330
23
100
AcDbEntity
  8
SANINDUSA
100
AcDbCircle
 10
937.7135631094191
 20
1383.514794402154
 30
0.0
 40
0.005
100
AcDbArc
 50
0.9999999968081942
 51
80.59579216359571
  0
LINE
  5
3D6
330
23
100
AcDbEntity
  8
SANINDUSA
100
AcDbLine
 10
937.7143801015007
 20
1383.519727213579
 30
0.0
 11
937.667463667447
 21
1383.527497718917
 31
0.0
  0
ARC
  5
3D7
330
23
100
AcDbEntity
  8
SANINDUSA
 48
0.5
100
AcDbCircle
 10
935.586656112912
 20
1383.81201638361
 30
0.0
 40
0.002
100
AcDbArc
 50
90.00508983850803
 51
180.005089838508
  0
ENDSEC
  0
SECTION
  2
OBJECTS
  0
DICTIONARY
  5
C
330
0
100
AcDbDictionary
281
     1
  3
ACAD_COLOR
350
1C
  3
ACAD_GROUP
350
D
  3
ACAD_LAYOUT
350
1A
  3
ACAD_MATERIAL
350
1B
  3
ACAD_MLINESTYLE
350
17
  3
ACAD_PLOTSETTINGS
350
19
  3
ACAD_PLOTSTYLENAME
350
E
  3
ACAD_TABLESTYLE
350
1D
  3
ACDBHEADERROUNDTRIPXREC
350
3F5
  3
AcDbVariableDictionary
350
3E3
  3
ASE_INDEX_DICTIONARY
350
3E0
  0
DICTIONARY
  5
1C
102
{ACAD_REACTORS
330
C
102
}
330
C
100
AcDbDictionary
281
     1
  0
DICTIONARY
  5
D
102
{ACAD_REACTORS
330
C
102
}
330
C
100
AcDbDictionary
281
     1
  0
DICTIONARY
  5
1A
102
{ACAD_REACTORS
330
C
102
}
330
C
100
AcDbDictionary
281
     1
  3
Layout1
350
22
  3
Layout2
350
2A
  3
Model
350
26
  0
DICTIONARY
  5
1B
102
{ACAD_REACTORS
330
C
102
}
330
C
100
AcDbDictionary
281
     1
  0
DICTIONARY
  5
17
102
{ACAD_REACTORS
330
C
102
}
330
C
100
AcDbDictionary
281
     1
  3
Standard
350
18
  0
DICTIONARY
  5
19
102
{ACAD_REACTORS
330
C
102
}
330
C
100
AcDbDictionary
281
     1
  0
ACDBDICTIONARYWDFLT
  5
E
102
{ACAD_REACTORS
330
C
102
}
330
C
100
AcDbDictionary
281
     1
  3
Normal
350
F
100
AcDbDictionaryWithDefault
340
F
  0
DICTIONARY
  5
1D
102
{ACAD_REACTORS
330
C
102
}
330
C
100
AcDbDictionary
281
     1
  3
Standard
350
1E
  0
DICTIONARY
  5
3F5
102
{ACAD_REACTORS
330
C
102
}
330
C
100
AcDbDictionary
281
     1
  0
DICTIONARY
  5
3E3
102
{ACAD_REACTORS
330
C
102
}
330
C
100
AcDbDictionary
281
     1
  3
CTABLESTYLE
350
3E4
  3
DIMASSOC
350
3EE
  3
HIDETEXT
350
3ED
  3
PROJECTNAME
350
3EF
  0
DICTIONARY
  5
3E0
102
{ACAD_REACTORS
330
C
102
}
330
C
100
AcDbDictionary
281
     1
  3
ASEBlockHierarchyIndexRecord
350
3E1
1001
DCO15
1040
1554702456.937
  0
LAYOUT
  5
22
102
{ACAD_XDICTIONARY
360
3F6
102
}
102
{ACAD_REACTORS
330
1A
102
}
330
1A
100
AcDbPlotSettings
  1

  2
HP DesignJet 500PS42+HPGL2 Card
  4

  6

 40
0.0
 41
0.0
 42
0.0
 43
0.0
 44
0.0
 45
0.0
 46
0.0
 47
0.0
 48
0.0
 49
0.0
140
0.0
141
0.0
142
1.0
143
1.0
 70
   688
 72
     0
 73
     0
 74
     5
  7
C:\Documents and Settings\Julio\Application Data\Autodesk\AutoCAD 2006\R16.2\enu\Plot Styles\sanindusa.ctb
 75
    16
147
1.0
148
0.0
149
0.0
100
AcDbLayout
  1
Layout1
 70
     1
 71
     1
 10
0.0
 20
0.0
 11
420.0
 21
297.0
 12
0.0
 22
0.0
 32
0.0
 14
1.000000000000000E+20
 24
1.000000000000000E+20
 34
1.000000000000000E+20
 15
-1.000000000000000E+20
 25
-1.000000000000000E+20
 35
-1.000000000000000E+20
146
0.0
 13
0.0
 23
0.0
 33
0.0
 16
1.0
 26
0.0
 36
0.0
 17
0.0
 27
1.0
 37
0.0
 76
     0
330
1F
  0
LAYOUT
  5
2A
102
{ACAD_XDICTIONARY
360
3FA
102
}
102
{ACAD_REACTORS
330
1A
102
}
330
1A
100
AcDbPlotSettings
  1

  2
HP DesignJet 500PS42+HPGL2 Card
  4

  6

 40
0.0
 41
0.0
 42
0.0
 43
0.0
 44
0.0
 45
0.0
 46
0.0
 47
0.0
 48
0.0
 49
0.0
140
0.0
141
0.0
142
1.0
143
1.0
 70
   688
 72
     0
 73
     0
 74
     5
  7
C:\Documents and Settings\Julio\Application Data\Autodesk\AutoCAD 2006\R16.2\enu\Plot Styles\sanindusa.ctb
 75
    16
147
1.0
148
0.0
149
0.0
100
AcDbLayout
  1
Layout2
 70
     1
 71
     2
 10
0.0
 20
0.0
 11
12.0
 21
9.0
 12
0.0
 22
0.0
 32
0.0
 14
0.0
 24
0.0
 34
0.0
 15
0.0
 25
0.0
 35
0.0
146
0.0
 13
0.0
 23
0.0
 33
0.0
 16
1.0
 26
0.0
 36
0.0
 17
0.0
 27
1.0
 37
0.0
 76
     0
330
27
  0
LAYOUT
  5
26
102
{ACAD_XDICTIONARY
360
3F8
102
}
102
{ACAD_REACTORS
330
1A
102
}
330
1A
100
AcDbPlotSettings
  1

  2
HP DesignJet 500PS42+HPGL2 Card
  4

  6

 40
0.0
 41
0.0
 42
0.0
 43
0.0
 44
0.0
 45
0.0
 46
0.0
 47
0.0
 48
0.0
 49
0.0
140
0.0
141
0.0
142
1.0
143
1.0
 70
  1712
 72
     0
 73
     0
 74
     0
  7
C:\Documents and Settings\Julio\Application Data\Autodesk\AutoCAD 2006\R16.2\enu\Plot Styles\sanindusa.ctb
 75
     0
147
1.0
148
0.0
149
0.0
100
AcDbLayout
  1
Model
 70
     1
 71
     0
 10
0.0
 20
0.0
 11
12.0
 21
9.0
 12
0.0
 22
0.0
 32
0.0
 14
0.0
 24
0.0
 34
0.0
 15
0.0
 25
0.0
 35
0.0
146
0.0
 13
0.0
 23
0.0
 33
0.0
 16
1.0
 26
0.0
 36
0.0
 17
0.0
 27
1.0
 37
0.0
 76
     0
330
23
  0
MLINESTYLE
  5
18
102
{ACAD_REACTORS
330
17
102
}
330
17
100
AcDbMlineStyle
  2
STANDARD
 70
     0
  3

 62
   256
 51
90.0
 52
90.0
 71
     2
 49
0.5
 62
   256
  6
BYLAYER
 49
-0.5
 62
   256
  6
BYLAYER
  0
ACDBPLACEHOLDER
  5
F
102
{ACAD_REACTORS
330
E
102
}
330
E
  0
TABLESTYLE
  5
1E
102
{ACAD_REACTORS
330
1D
102
}
330
1D
100
AcDbTableStyle
  3
Standard
 70
     0
 71
     0
 40
1.5
 41
1.5
280
     0
281
     0
  7
Standard
140
4.5
170
     2
 62
     0
 63
     7
283
     0
274
    -2
284
     1
 64
     0
275
    -2
285
     1
 65
     0
276
    -2
286
     1
 66
     0
277
    -2
287
     1
 67
     0
278
    -2
288
     1
 68
     0
279
    -2
289
     1
 69
     0
  7
Standard
140
6.0
170
     5
 62
     0
 63
     7
283
     0
274
    -2
284
     1
 64
     0
275
    -2
285
     1
 65
     0
276
    -2
286
     1
 66
     0
277
    -2
287
     1
 67
     0
278
    -2
288
     1
 68
     0
279
    -2
289
     1
 69
     0
  7
Standard
140
4.5
170
     5
 62
     0
 63
     7
283
     0
274
    -2
284
     1
 64
     0
275
    -2
285
     1
 65
     0
276
    -2
286
     1
 66
     0
277
    -2
287
     1
 67
     0
278
    -2
288
     1
 68
     0
279
    -2
289
     1
 69
     0
  0
DICTIONARYVAR
  5
3E4
102
{ACAD_REACTORS
330
3E3
102
}
330
3E3
100
DictionaryVariables
280
     0
  1
STANDARD
  0
DICTIONARYVAR
  5
3EE
102
{ACAD_REACTORS
330
3E3
102
}
330
3E3
100
DictionaryVariables
280
     0
  1
2
  0
DICTIONARYVAR
  5
3ED
102
{ACAD_REACTORS
330
3E3
102
}
330
3E3
100
DictionaryVariables
280
     0
  1
1
  0
DICTIONARYVAR
  5
3EF
102
{ACAD_REACTORS
330
3E3
102
}
330
3E3
100
DictionaryVariables
280
     0
  1

  0
XRECORD
  5
3E1
102
{ACAD_REACTORS
330
3E0
102
}
330
3E0
100
AcDbXrecord
280
     1
  0
DICTIONARY
  5
3F6
330
22
100
AcDbDictionary
280
     1
281
     1
  3
ACAD_XREC_ROUNDTRIP
360
3F7
  0
DICTIONARY
  5
3FA
330
2A
100
AcDbDictionary
280
     1
281
     1
  3
ACAD_XREC_ROUNDTRIP
360
3FB
  0
DICTIONARY
  5
3F8
330
26
100
AcDbDictionary
280
     1
281
     1
  3
ACAD_XREC_ROUNDTRIP
360
3F9
  0
XRECORD
  5
3F7
102
{ACAD_REACTORS
330
3F6
102
}
330
3F6
100
AcDbXrecord
280
     1
102
SHADEPLOT
 70
     0
102
SHADEPLOTRESLEVEL
 70
     2
102
SHADEPLOTCUSTOMDPI
 70
   300
  0
XRECORD
  5
3FB
102
{ACAD_REACTORS
330
3FA
102
}
330
3FA
100
AcDbXrecord
280
     1
102
SHADEPLOT
 70
     0
102
SHADEPLOTRESLEVEL
 70
     2
102
SHADEPLOTCUSTOMDPI
 70
   300
  0
XRECORD
  5
3F9
102
{ACAD_REACTORS
330
3F8
102
}
330
3F8
100
AcDbXrecord
280
     1
102
SHADEPLOT
 70
     0
102
SHADEPLOTRESLEVEL
 70
     2
102
SHADEPLOTCUSTOMDPI
 70
   300
  0
ENDSEC
  0
EOF
